Тональность0+
Шрифт0
Комментарии: 0
Автопрокрутка

of Montreal - Cutie Pie, аккорды

    	    	---------------------------------------------------------------------------
                           Of Montreal - Cutie Pie
---------------------------------------------------------------------------
                        Tabbed by: gutturalguitar
                        Tuning: half-step down, slightly flat
 
                        Cutie Pie (1998)
                        (Kevin Barnes)

                        From: "The Bedside Drama: A Petite Tragedy"
---------------------------------------------------------------------------
                            Fm6bb5 (113334)
                            A#9 (x10111)
---------------------------------------------------------------------------

e|------------------0-0------0-0-------------1--------------0-0-----------|
B|------1-----------1-0------0-0-------------1--------------1-1----0---1--|
G|---0-2--------0---2-2------0-0---0---------2--------------0-0-0h2-2h4---|
D|--2-3------2------2-2------2-2-----3----0--0---2---0------2-2-----------|
A|-3-----3----------0-0------2-2-------------------------3--3-3---------3-|
E|------------------------0--0-0------------------------------------------|

         you are my cutie pie    my cutie pie    yes you are

(repeat tab above, but omit intro)

you are my cutie pie, my cutie pie, yes you are

C            G           Dm (barre)    Fm6bb5

you'll be my cutie pie until the day I die

  G              A (barre)  D                    C

I hope that is a long       time, 'cause I don't want to die

(repeat tab above, but omit intro)

you are my cutie pie, my cutie pie, yes you are

(repeat tab above, but omit intro)

you are my cutie pie, my cutie pie, yes you are

C            G           Dm (barre)    Fm6bb5

you'll be my cutie pie until the day I die

  G              A (barre)  D                    C

I hope that is a long       time, 'cause I don't want to die

    A#9

and live without my cutie pie

(repeat tab above, but do not omit intro)

e|-----0-|
B|---1-1-|
G|--2--0-|
D|-3---2-|
A|-----3-|
E|-------|


		
    

Аккорды в подборе (аппликатуры)
Скрыть
A#9 Варианты C Варианты G Варианты Dm Варианты A Варианты D Варианты
Оцените подбор:
0
оценок: 0
224
Добавить в избранное

Каким боем играть песню of Montreal - Cutie Pie? Голосуй!
Виды гитарного боя и как их играть
  • Хотите поделиться видео разбором песни или кавером?
  • Подобрали альтернативную версию песни (например, проще, без баррэ)?
  • Хотите узнать, как играют эту песню, какой бой?
Комментарии
0.0623 s, 0.88MB