Тональность0+
Шрифт0
Комментарии: 0
Автопрокрутка

Misc Computer Games - Minecraft - Hal 2

Оцените подбор:
0
оценок: 0
19
Добавить в избранное

Аккорды в подборе
Скрыть
COPIED FROM HERE: https://www.gametabs.net/minecraft/hal-2

Title: Hal 2
SubTitle: Minecraft
Artist: Daniel Rosenfeld (a.k.a. C418)
Tabber: Mitch Jackson
Tempo = 75
T/S = 4/4

CAPO 5


NOTE: The mp3 starts out quiet and builds up in volume.


   Gradually build up in volume to bar 15  ---->

    E  E  E  Q     Q.            E  E  E  E  H                E  E  E  Q     Q.
e|----------------------------|----------------------------|----------------------------|
B|--------0--------0----------|--------0-------------------|--------0--------0----------|
G|-----------0----------------|-----------0L-L-------------|-----------0----------------|
D|-----2----------------------|-----2----------------------|-----2----------------------|
A|--5-------------------------|--5-------------------------|--5-------------------------|
E|----------------------------|----------------------------|----------------------------|

    E  E  E  E  H                E  E  E  Q     Q.            E  E  E  E  H              
e|----------------------------|----------------------------|----------------------------|
B|--------0-------------------|--------0--------0----------|--------0-------------------|
G|-----------0L-L-------------|-----------0----------------|-----------0L-L-------------|
D|-----2----------------------|-----2----------------------|-----2----------------------|
A|--5-------------------------|--5-------------------------|--5-------------------------|
E|----------------------------|----------------------------|----------------------------|

    E  E  E  Q     Q.            E  E  E  E  H                E  E  E  Q     Q.          
e|----------------------------|----------------------------|----------------------------|
B|--------0--------0----------|--------0-------------------|--------0--------0----------|
G|-----------0----------------|-----------0L-L-------------|-----------0----------------|
D|-----2----------------------|-----2----------------------|-----2----------------------|
A|--5-------------------------|--5-------------------------|--5-------------------------|
E|----------------------------|----------------------------|----------------------------|

    E  E  E  E  H                E  E  E  Q     Q.           E  E  E  E  H               
e|----------------------------|----------------------------|----------------------------|
B|--------0-------------------|--------0--------0----------|--------0-------------------|
G|-----------0L-L-------------|-----------0----------------|-----------0L-L-------------|
D|-----2----------------------|-----2----------------------|-----2----------------------|
A|--5-------------------------|--5-------------------------|--5-------------------------|
E|----------------------------|----------------------------|----------------------------|

    E  E  E  Q     Q.            E  E  E  E  H                E  E  E  Q     E  Q
e|----------------------------|----------------------------|--0--------------3--2-------|
B|--------0--------0----------|--------0-------------------|--------0--------0----------|
G|-----------0----------------|-----------0L-L-------------|-----------0----------------|
D|-----2----------------------|-----2----------------------|--0--2----------------------|
A|--5-------------------------|--5-------------------------|----------------------------|
E|----------------------------|----------------------------|----------------------------|

    E  E  E  H           E       E  E  E  Q     E  Q          E  E  E  E  H              
e|-----0-----5----------------|--0--------------7--5-------|--0--7-----3L-L-------------|
B|--3-----0-------------------|--------0--------0----------|--------0-------------------|
G|-----------0-----------0----|-----------0----------------|-----------0L-L-------------|
D|-----2----------------------|--0--2----------------------|--0--2----------------------|
A|--2-------------------------|----------------------------|----------------------------|
E|----------------------------|----------------------------|----------------------------|

    E  E  E  Q     E  E  E       E  E  E  Q.       Q          E  E  E  Q     E  Q        
e|--3--5--7-----------3--5----|--0-------------------------|--10----7-----------10------|
B|--------0--------0----------|--------0-----------0-------|--------0--8-----0----------|
G|-----------0----------------|-----------0----------------|-----------0----------------|
D|-----2----------------------|-----2----------------------|----------------------------|
A|--0-------------------------|--0-------------------------|--0--7----------------------|
E|----------------------------|----------------------------|----------------------------|

    E  E  E  Q.       Q          E  S S E  E  E  S S E  E       E  S S E  H           E     
e|--5--0----------------------|--3----2----------3-0-2-------|--3----0----5----------------|
B|--------0-----------0-------|---------0-----3--0-----------|---------0-------------------|
G|-----------0----------------|-----0------0-----------------|-----0------0-----------0----|
D|-----2----------------------|--2---------------------------|--2--------------------------|
A|--0-------------------------|------------------------------|--2--------------------------|
E|----------------------------|--0----------------------3----|--0--------------------------|

    E  S S E  E  E  S S E  E       E  E  E  E  H                E  S S E  E  E  S S E  E     
e|--0----7----0-----7-0-3-------|-----7-----3L-L-------------|--3----2----------3-0-2-------|
B|---------0--------0-----------|--------0--5L-L-------------|---------0-----3--0-----------|
G|-----0---------0--------------|-----------0L-L-------------|-----0------0-----------------|
D|--2---------------------------|-----2----------------------|--2---------------------------|
A|-------------------------2----|----------------------------|------------------------------|
E|--0---------------------------|--0-------------------------|--0----------------------3----|

    E  S S E  H           E       E  S S E  E  E  S S E  E       E  E  E  E  H              
e|--3----0----5----------------|--0----7----0-----7-0-2-------|-----7--2--0L-L-------------|
B|---------0-------------------|---------0--------0-----------|--------0--3L-L-------------|
G|-----0------0-----------0----|-----0---------0--------------|-----------0L-L-------------|
D|--2--------------------------|--2---------------------------|-----2----------------------|
A|--2--------------------------|-------------------------2----|----------------------------|
E|--0--------------------------|--0---------------------------|--0-------------------------|

    E  E  E  Q     E  E  E       E  E  E  H           E       E  E  E  Q     E  E  E     
e|--3-----2-----------3-------|--------2-------------------|-----0--7--3-----7--5-------|
B|-----0-----3-----0----------|-----0-----3----------------|--3--------------0----------|
G|--2--------0----------------|--2--------------------0----|----------------------------|
D|----------------------------|----------------------------|--0-------------------------|
A|--3-------------------------|--2-------------------------|--0--------------------0----|
E|-----------------------3----|--3-------------------------|----------------------------|

    E  E  E  E  H                E  E  E  Q     E  E  E       E  E  E  E  H              
e|----------------------------|-----------------7--5-------|----------------------------|
B|--------0-------------------|--------0--------0----------|--------0-------------------|
G|-----------0L-L-------------|-----------0----------------|-----------0L-L-------------|
D|--0--2----------------------|--0--2----------------------|--0--2----------------------|
A|--0-------------------------|-----------------------0----|--0-------------------------|
E|--2-------------------------|--1-------------------------|--2-------------------------|

    E  E  E  Q     E  E  E       E  E  E  E  Q     Q          E  S S E  E  S S E  E  E     
e|--------2--------2----------|--------------3-----5-------|-------3----2-----------------|
B|--------0--3-----0----------|--------0-------------------|--0--------------3-0----------|
G|-----------0--------0-------|-----------0----------------|---------------0--------------|
D|--0--2----------------------|--0--2----------------------|---------4--0------4----------|
A|----------------------------|--0-------------------------|-----2----------------2-------|
E|--1--------------------3----|--2-------------------------|--0----------------------0----|

    E  S S E  E  E  E  E  E       E  S S E  E  S S E  E  E       E  S S E  E  E  E  E  E     
e|-------3----------------2----|--7----5----0-----------------|-------5----0----------------|
B|--0--------------------------|---------0-------2-0----------|--0------0-----------0-------|
G|------------2----------------|---------------2------2-------|------------0-----0-----0----|
D|---------4--0--------4-------|--0--2------------------------|-----2---------2-------------|
A|--0--2---------0--2----------|-------------------------2----|-----------------------------|
E|-----------------------------|--0---------------------------|--3--------------------------|

    E  S S E  E  S S E  E  E       E  S S E  E  E  E  E  E       E  S S E  E  S S E  E  E     
e|-------3----2-----------------|-------3----------------2----|--7----5----0-----------------|
B|--0--------------3-0----------|--0--------------------------|---------0-------2-0----------|
G|---------------0--------------|------------2----------------|---------------2------2-------|
D|---------4--0------4----------|---------4--0--------4-------|--0--2------------------------|
A|-----2----------------2-------|--0--2---------0--2----------|-------------------------2----|
E|--0----------------------0----|-----------------------------|--0---------------------------|

    E  E  E  E  H                E  E  E  Q     Q.            E  E  E  E  H              
e|--------2-------------------|----------------------------|----------------------------|
B|-----------3L-L-------------|--------0--------0----------|--------0-------------------|
G|----------------------------|-----------0----------------|-----------0L-L-------------|
D|-----2----------------------|--0--2----------------------|--0--2----------------------|
A|----------------------------|----------------------------|--0-------------------------|
E|--3-------------------------|--0-------------------------|----------------------------|

     Gradually drop off in volume to end --->

    E  E  E  Q     Q.            E  E  E  E  H                E  E  E  Q     Q.          
e|----------------------------|----------------------------|----------------------------|
B|--------0--------0----------|--------0-------------------|--------0--------0----------|
G|-----------0----------------|-----------0L-L-------------|-----------0----------------|
D|--0--2----------------------|--0--2----------------------|--0--2----------------------|
A|----------------------------|----------------------------|----------------------------|
E|--0-------------------------|--3-------------------------|--0-------------------------|

    E  E  E  E  H                E  E  E  Q     Q.            E  E  E  E
e|----------------------------|----------------------------|----------------------------|
B|--------0-------------------|--------0--------0----------|--------0-------------------|
G|-----------0L-L-------------|-----------0----------------|-----------0L-L-------------|
D|--0--2----------------------|--0--2----------------------|--0--2----------------------|
A|----------------------------|----------------------------|----------------------------|
E|--0-------------------------|--0-------------------------|--0-------------------------|

    E  E  E  Q     Q.            E  E  E  E  H                E  E  E  Q     Q.            W
e|----------------------------|----------------------------|----------------------------|------------------||
B|--------0--------0----------|--------0-------------------|--------0--------0----------|--L---------------||
G|-----------0----------------|-----------0L-L-------------|-----------0----------------|--L---------------||
D|-----2----------------------|-----2----------------------|-----2----------------------|--L---------------||
A|--5-------------------------|--5-------------------------|--5-------------------------|--L---------------||
E|----------------------------|----------------------------|----------------------------|------------------||
Комментарии
0.0391 s, 0.76MB