Тональность0+
Шрифт0
Комментарии: 0
Автопрокрутка

Misc Computer Games - Mega Man X6 - Gates Theme

Оцените подбор:
0
оценок: 0
10
Добавить в избранное

Аккорды в подборе
Скрыть
Intro/ Riff 1 X12

e|------------------------------|
B|------------------------------|
G|------------------------------|
D|------------------------------|
A|---------11--8--14-13-11------|
E|-6-6-6-6-9---6--12-11-9-------|
PM *******



Solo

e|-----------------------------------------------11~--14~--16~---18-13---18-11-----9-11--------------11--13~|
B|-9h10h11-------11-----------9----8---11h13h14--------------------------------12--------8-11--11-14--------|
G|---------10-------11-8--11----9---------------------------------------------------------------------------|
D|----------------------------------------------------------------------------------------------------------|
A|----------------------------------------------------------------------------------------------------------|
E|----------------------------------------------------------------------------------------------------------|


Riff 2 X8

e|-----------------------------------|
B|-----------------------------------|
G|-----------------------------------|
D|-----------------------------------|
A|---------13--10--16-15-13----------|
E|-8-8-8-8-11--8---14-13-11----------|
PM *******



e|-/16-21-----------13-15---16---------------/11-16------------10-12--11----16-11---|
B|--------13-15-16-------------14--14-16-18----------10-12-13------------13---------|
G|----------------------------------------------------------------------------------|
D|----------------------------------------------------------------------------------|
A|----------------------------------------------------------------------------------|
E|----------------------------------------------------------------------------------|



e|-/12-8----------8-10--/12-8---16-19---14-16-18------16-15----------15--19-21-16---|
B|--------8-9-11----------------------------------15--------14-16-18----------------|
G|----------------------------------------------------------------------------------|
D|----------------------------------------------------------------------------------|
A|----------------------------------------------------------------------------------|
E|----------------------------------------------------------------------------------|



**************
PM-*: Palm Mute
/: slide up
h: Hammer-on
Комментарии
0.0395 s, 0.74MB