Тональность0+
Шрифт0
Комментарии: 0
Автопрокрутка

Земфира - Шкалят датчики, аккорды

    	    	Вступление

Riff Intro: (distorted)
D|---------------------------------------------------------------------|
A|---------------------------------------------------------------------|
E|-/7---7-7-9--9-10--10---10-12-12---8---8-8-10--10-11---11---11-14-14-| 

Riff 2: (гитара и бас играют одно и то же):
D|---------------1---------------------------1-----------|
A|-3-------1-3-----3-----1-2---3-------1-3-----3-----1-3-|
E|-----3-3-------------3-----------3-3-------------3-----|

    Bm    Cm
Гетто... Гуру...
                 [Riff 2]
Ты принимаешь наркотики
  Bm        Cm   
Где-то... Сдуру...
              [Riff 2]
Хочешь за поворотики

Pre-chorus: (здесь только bass)
   Cm                       Gm                Bm     Dm           Cm      
G|-----------------------------------------------------------------|
D|-----------------------------------------------------------------|
A|-3---------------------------------------2------5------------3---|
E|--------------3--------------------------------------------------|
Я истрачу все деньги на колечки на память. Я отправлю себя гулять...

Chorus:
                  D# F D#
А музыканты - мальчики
  F       D# F D#
Шкалят датчики

 Bm       Cm
Камни... Пишут...
                 [Riff 2]    
Мол, скоро все закончится
 Bm  Cm
На афишах -
            [Riff 2]
Подруга-переводчица

Pre-chorus: (здесь только bass)
   Cm                       Gm                Bm     Dm           Cm      
G|-----------------------------------------------------------------|
D|-----------------------------------------------------------------|
A|-3---------------------------------------2------5------------3---|
E|--------------3--------------------------------------------------|
Я истрачу все деньги на колечки на память. Я отправлю себя гулять...

Chorus:
                  D# F D#
А музыканты - мальчики
  F       D# F D#
Шкалят датчики

 Bm       Cm
Камни... Пишут...
                 [Riff 2]    
Мол, скоро все закончится
 Bm  Cm
На афишах -
            [Riff 2]
Подруга-переводчица

Interlude = Intro: x2
D|---------------------------------------------------------------------|
A|---------------------------------------------------------------------|
E|-/7---7-7-9--9-10--10---10-12-12---8---8-8-10--10-11---11---11-14-14-| 

Pre-chorus: (с пианино)
   Cm                       Gm                Bm     Dm           Cm      
G|-----------------------------------------------------------------|
D|-----------------------------------------------------------------|
A|-3---------------------------------------2------5------------3---|
E|--------------3--------------------------------------------------|
Я истрачу все деньги на колечки на память. Я отправлю себя гулять...

Chorus:
                  D# F D#
А музыканты - мальчики
  F       D# F D#
Шкалят датчики

 Bm       Cm
Камни... Пишут...
                 [Riff 2]    
Мол, скоро все закончится
 Bm  Cm
На афишах -
            [Riff 2]
Подруга-переводчица		
    

Аккорды в подборе (аппликатуры)
Скрыть
Bm Варианты Cm Варианты Gm Варианты Dm Варианты D# Варианты F Варианты
Оцените подбор:
0
оценок: 0
18495
0
Каким боем играть песню Земфира - Шкалят датчики? Голосуй!
Виды гитарного боя и как их играть
Видео песни Земфира - Шкалят датчики
Комментарии
0.0810 s, 3.91MB, p