Тональность0+
Шрифт0
Комментарии: 0
Автопрокрутка

Vidal Christina - Take Me Away (solo ver 2), аккорды

Оцените подбор:
0
оценок: 0
283
Добавить в избранное

Аккорды в подборе (аппликатуры)
Скрыть
Christina Vidal - Take Me Away
Freaky Friday Soundtrack
Standard Tuning
You will have to listen to the song for timing.
Thanks!

------------------2-2-----------/7-7-5-----------------5/14-14-14-14-12-14---
------------------2-2------------------7-7-7-7-7-7-5--------------------15---
----2-----------------4-2-0--------------------------7-----------------------
--4---4-2-0-4----------------------------------------------------------------
-----------------------------------------------------------------------------
-----------------------------------------------------------------------------

-14-14-14-14-12-------14-12----------12-12-12-12-12-12-12-12--------
----------------14-12-------15-12-15--------------------------------
--------------------------------------------------------------------
--------------------------------------------------------------------
--------------------------------------------------------------------
--------------------------------------------------------------------

-13-13-13-13-13-13-13-13-14-14------9-----9-------------------12-14-
--------------------------------9-9-9-9-9-9-7----7-9-7-----14-------
----------------------------------------------10-------10-----------
--------------------------------------------------------------------
--------------------------------------------------------------------
--------------------------------------------------------------------
Видео песни Vidal Christina - Take Me Away (solo ver 2)
Комментарии
0.0382 s, 0.72MB