Тональность0+
Шрифт0
Комментарии: 0
Автопрокрутка

Thrice - Blood On Blood

Оцените подбор:
0
оценок: 0
11
Добавить в избранное

Аккорды в подборе
Скрыть
Thrice
"Blood On Blood"

Standard tuning.


[Intro]
  G1
e|----------------|----------------|----------------|----------------|
B|4-4-4-4-4-4-4-4-|4-4-4-4-4-4-4-4-|4-4-4-4-4-4-4-4-|4-4-4-4-4-4-4-4-|
G|----------------|----------------|----------------|----------------|
D|----------------|----------------|----------------|----------------| x2
A|3-3-3-3-3-3-3-3-|3-3-3-3-3-3-3-3-|3-3-3-3-3-3-3-3-|3-3-3-3-3-3-3-3-|
E|----------------|----------------|----------------|----------------|
  >     >     >      >     >   >    >     >     >      >     >   >     

[Verse 1]
  G1
e|----------------|----------------|----------------|----------------|
B|4-4-4-4-4-4-4-4-|4-4-4-4-4-4-4-4-|----------------|----------------|
G|----------------|----------------|7-7-7-7-7-7-7-7-|7-7-7-7-7-7-7-7-|
D|----------------|----------------|----------------|----------------|
A|3-3-3-3-3-3-3-3-|3-3-3-3-3-3-3-3-|6-6-6-6-6-6-6-6-|6-6-6-6-6-6-6-6-|
E|----------------|----------------|----------------|----------------|
  >     >     >      >     >   >    >     >     >      >     >   >  

e|----------------|----------------|----------------|----------------|
B|----------------|----------------|3-3-3-3-3-3-3-3-|3-3-3-3-3-3-3-3-|
G|5-5-5-5-5-5-5-5-|5-5-5-5-5-5-5-5-|----------------|----------------|
D|----------------|----------------|----------------|----------------|
A|----------------|----------------|----------------|----------------|
E|4-4-4-4-4-4-4-4-|4-4-4-4-4-4-4-4-|1-1-1-1-1-1-1-1-|1-1-1-1-1-1-1-1-|
  >     >     >      >     >   >    >     >     >      >     >   >  

e|----------------|----------------|----------------|----------------|
B|4-4-4-4-4-4-4-4-|4-4-4-4-4-4-4-4-|----------------|----------------|
G|----------------|----------------|7-7-7-7-7-7-7-7-|7-7-7-7-7-7-7-7-|
D|----------------|----------------|----------------|----------------|
A|3-3-3-3-3-3-3-3-|3-3-3-3-3-3-3-3-|6-6-6-6-6-6-6-6-|6-6-6-6-6-6-6-6-|
E|----------------|----------------|----------------|----------------|
  >     >     >      >     >   >    >     >     >      >     >   > 

e|----------------|----------------|----------------|----------------|
B|----------------|----------------|3-3-3-3-3-3-3-3-|3-3-3-3-3-3-3-3-|
G|5-5-5-5-5-5-5-5-|5-5-5-5-5-5-5-5-|----------------|----------------|
D|----------------|----------------|----------------|----------------|
A|----------------|----------------|----------------|----------------|
E|4-4-4-4-4-4-4-4-|4-4-4-4-4-4-4-4-|4-4-4-4-4-4-4-4-|4-4-4-4-4-4-4-4-|
  >     >     >      >     >   >    >     >     >      >     >   > 

[Chorus]
    G1
e|----------------|----------------|----------------|----------------| \
B|4-4-4-4-4-4-4-4-|4-4-4-4-4-4-4-4-|----------------|----------------|  \
G|----------------|----------------|7-7-7-7-7-7-7-7-|7-7-7-7-7-7-7-7-|  |
D|----------------|----------------|----------------|----------------|  |
A|3-3-3-3-3-3-3-3-|3-3-3-3-3-3-3-3-|6-6-6-6-6-6-6-6-|6-6-6-6-6-6-6-6-|  |
E|----------------|----------------|----------------|----------------|  |
 |> G2  >     >      >     >   >    >     >     >      >     >   >      |
e|----------------|----------------|----------------|----------------|  |
B|--3/8-6-8\----3/|8-6---6---3/8-6-|--3/8-6-8\----3/|8-6---6---3/8-6-|  |
G|----------------|----5-----------|----------------|----5-----------|  |
D|----------------|----------------|----------------|----------------|  |
A|----------------|----------------|----------------|----------------|  |
E|----------------|----------------|----------------|----------------|  |
 |  G3                                                                  |
e|----------------|----------------|----------------|----------------|  |
B|------6-8\------|--6-8\--------6-|------6-8\------|--6-8\--------6-|  |
G|----------------|----------------|----------------|----------------|  |
D|--5/8---------5/|8---------5/8---|--5/8---------5/|8---------5/8---|  |
A|----------------|----------------|----------------|----------------|  |
E|----------------|----------------|----------------|----------------|  |
                                                                        |
                                                                        |
e|----------------|----------------|----------------|----------------|  |
B|----------------|----------------|3-3-3-3-3-3-3-3-|3-3-3-3-3-3-3-3-|  |
G|5-5-5-5-5-5-5-5-|5-5-5-5-5-5-5-5-|----------------|----------------|  |
D|----------------|----------------|----------------|----------------|  |
A|----------------|----------------|----------------|----------------|  |
E|4-4-4-4-4-4-4-4-|4-4-4-4-4-4-4-4-|1-1-1-1-1-1-1-1-|1-1-1-1-1-1-1-1-|  |
 |>     >     >      >     >   >    >     >     >      >     >   >      |
e|----------------|----------------|----------------|----------------|  |
B|8-8---8-8---8-8-|--8-8---8---8---|8-8---8-8---8-8-|--8-8---8---8---|  |
G|8-8---8-8---8-8-|--8-8---8---8---|7-7---7-7---7-7-|--7-7---7---7---|  |
D|----------------|----------------|----------------|----------------|  |
A|----------------|----------------|----------------|----------------|  |
E|----------------|----------------|----------------|----------------|  |
 |                                                                      |
e|----------------|----------------|----------------|----------------|  |
B|----8\----------|8\----------8\--|----8\----------|8\------------8\|  |
G|--------8~------|----7~----------|--------8~------|----7~----------|  |
D|5/6---------5/6-|--------5/6-----|5/6---------5/6-|----------5/6---|  |
A|----------------|----------------|----------------|----------------|  |
E|----------------|----------------|----------------|----------------|  |
                                                                        |
                                                                        | x2
e|----------------|----------------|----------------|----------------|  |
B|4-4-4-4-4-4-4-4-|4-4-4-4-4-4-4-4-|----------------|----------------|  |
G|----------------|----------------|7-7-7-7-7-7-7-7-|7-7-7-7-7-7-7-7-|  |
D|----------------|----------------|----------------|----------------|  |
A|3-3-3-3-3-3-3-3-|3-3-3-3-3-3-3-3-|6-6-6-6-6-6-6-6-|6-6-6-6-6-6-6-6-|  |
E|----------------|----------------|----------------|----------------|  |
 |>     >     >      >     >   >    >     >     >      >     >   >      |
e|----------------|----------------|----------------|----------------|  |
B|--3/8-6-8\----3/|8-6---6---3/8-6-|--3/8-6-8\----3/|8-6---6---3/8-6-|  |
G|----------------|----5-----------|----------------|----5-----------|  |
D|----------------|----------------|----------------|----------------|  |
A|----------------|----------------|----------------|----------------|  |
E|----------------|----------------|----------------|----------------|  |
 |                                                                      |
e|----------------|----------------|----------------|----------------|  |
B|------6-8\------|--6-8\--------6-|------6-8\------|--6-8\--------6-|  |
G|----------------|----------------|----------------|----------------|  |
D|--5/8---------5/|8---------5/8---|--5/8---------5/|8---------5/8---|  |
A|----------------|----------------|----------------|----------------|  |
E|----------------|----------------|----------------|----------------|  |
                                                                        |
                                                                        |
e|----------------|----------------|----------------|----------------|  |
B|----------------|----------------|3-3-3-3-3-3-3-3-|3-3-3-3-3-3-3-3-|  |
G|5-5-5-5-5-5-5-5-|5-5-5-5-5-5-5-5-|----------------|----------------|  |
D|----------------|----------------|----------------|----------------|  |
A|----------------|----------------|----------------|----------------|  |
E|4-4-4-4-4-4-4-4-|4-4-4-4-4-4-4-4-|4-4-4-4-4-4-4-4-|4-4-4-4-4-4-4-4-|  |
 |>     >     >      >     >   >    >     >     >      >     >   >      |
e|----------------|----------------|----------------|----------------|  |
B|8-8---8-8---8-8-|--8-8---8---8---|8-8---8-8---8-8-|--8-8---8---8---|  |
G|8-8---8-8---8-8-|--8-8---8---8---|7-7---7-7---7-7-|--7-7---7---7---|  |
D|----------------|----------------|----------------|----------------|  |
A|----------------|----------------|----------------|----------------|  |
E|----------------|----------------|----------------|----------------|  |
 |                                                                      |
e|----------------|----------------|----------------|----------------|  |
B|----8\----------|8\----------8\--|----8\----------|8\------------8\|  |
G|--------8~------|----7~----------|--------8~------|----7~----------|  |
D|5/6---------5/6-|--------5/6-----|5/6---------5/6-|----------5/6---|  |
A|----------------|----------------|----------------|----------------| /
E|----------------|----------------|----------------|----------------|/

[Verse 2]
  G1
e|----------------|----------------|----------------|----------------|
B|4-4-4-4-4-4-4-4-|4-4-4-4-4-4-4-4-|----------------|----------------|
G|----------------|----------------|7-7-7-7-7-7-7-7-|7-7-7-7-7-7-7-7-|
D|----------------|----------------|----------------|----------------|
A|3-3-3-3-3-3-3-3-|3-3-3-3-3-3-3-3-|6-6-6-6-6-6-6-6-|6-6-6-6-6-6-6-6-|
E|----------------|----------------|----------------|----------------|
  >     >     >      >     >  >     >     >     >      >     >  >   

e|----------------|----------------|----------------|----------------|
B|----------------|----------------|3-3-3-3-3-3-3-3-|3-3-3-3-3-3-3-3-|
G|5-5-5-5-5-5-5-5-|5-5-5-5-5-5-5-5-|----------------|----------------|
D|----------------|----------------|----------------|----------------|
A|----------------|----------------|----------------|----------------|
E|4-4-4-4-4-4-4-4-|4-4-4-4-4-4-4-4-|1-1-1-1-1-1-1-1-|1-1-1-1-1-1-1-1-|
  >     >     >      >     >  >     >     >     >      >     >  >   

e|----------------|----------------|----------------|----------------|
B|4-4-4-4-4-4-4-4-|4-4-4-4-4-4-4-4-|----------------|----------------|
G|----------------|----------------|7-7-7-7-7-7-7-7-|7-7-7-7-7-7-7-7-|
D|----------------|----------------|----------------|----------------|
A|3-3-3-3-3-3-3-3-|3-3-3-3-3-3-3-3-|6-6-6-6-6-6-6-6-|6-6-6-6-6-6-6-6-|
E|----------------|----------------|----------------|----------------|
  >     >     >      >     >  >     >     >     >      >     >  >   

e|----------------|----------------|----------------|----------------|
B|----------------|----------------|3-3-3-3-3-3-3-3-|3-3-3-3-3-3-3-3-|
G|5-5-5-5-5-5-5-5-|5-5-5-5-5-5-5-5-|----------------|----------------|
D|----------------|----------------|----------------|----------------|
A|----------------|----------------|----------------|----------------|
E|4-4-4-4-4-4-4-4-|4-4-4-4-4-4-4-4-|4-4-4-4-4-4-4-4-|4-4-4-4-4-4-4-4-|
  >     >     >      >     >  >     >     >     >      >     >  > 

[Chorus]
    G1
e|----------------|----------------|----------------|----------------| \
B|4-4-4-4-4-4-4-4-|4-4-4-4-4-4-4-4-|----------------|----------------|  \
G|----------------|----------------|7-7-7-7-7-7-7-7-|7-7-7-7-7-7-7-7-|  |
D|----------------|----------------|----------------|----------------|  |
A|3-3-3-3-3-3-3-3-|3-3-3-3-3-3-3-3-|6-6-6-6-6-6-6-6-|6-6-6-6-6-6-6-6-|  |
E|----------------|----------------|----------------|----------------|  |
 |> G2  >     >      >     >   >    >     >     >      >     >   >      |
e|----------------|----------------|----------------|----------------|  |
B|--3/8-6-8\----3/|8-6---6---3/8-6-|--3/8-6-8\----3/|8-6---6---3/8-6-|  |
G|----------------|----5-----------|----------------|----5-----------|  |
D|----------------|----------------|----------------|----------------|  |
A|----------------|----------------|----------------|----------------|  |
E|----------------|----------------|----------------|----------------|  |
 |  G3                                                                  |
e|----------------|----------------|----------------|----------------|  |
B|------6-8\------|--6-8\--------6-|------6-8\------|--6-8\--------6-|  |
G|----------------|----------------|----------------|----------------|  |
D|--5/8---------5/|8---------5/8---|--5/8---------5/|8---------5/8---|  |
A|----------------|----------------|----------------|----------------|  |
E|----------------|----------------|----------------|----------------|  |
                                                                        |
                                                                        |
e|----------------|----------------|----------------|----------------|  |
B|----------------|----------------|3-3-3-3-3-3-3-3-|3-3-3-3-3-3-3-3-|  |
G|5-5-5-5-5-5-5-5-|5-5-5-5-5-5-5-5-|----------------|----------------|  |
D|----------------|----------------|----------------|----------------|  |
A|----------------|----------------|----------------|----------------|  |
E|4-4-4-4-4-4-4-4-|4-4-4-4-4-4-4-4-|1-1-1-1-1-1-1-1-|1-1-1-1-1-1-1-1-|  |
 |>     >     >      >     >   >    >     >     >      >     >   >      |
e|----------------|----------------|----------------|----------------|  |
B|8-8---8-8---8-8-|--8-8---8---8---|8-8---8-8---8-8-|--8-8---8---8---|  |
G|8-8---8-8---8-8-|--8-8---8---8---|7-7---7-7---7-7-|--7-7---7---7---|  |
D|----------------|----------------|----------------|----------------|  |
A|----------------|----------------|----------------|----------------|  |
E|----------------|----------------|----------------|----------------|  |
 |                                                                      |
e|----------------|----------------|----------------|----------------|  |
B|----8\----------|8\----------8\--|----8\----------|8\------------8\|  |
G|--------8~------|----7~----------|--------8~------|----7~----------|  |
D|5/6---------5/6-|--------5/6-----|5/6---------5/6-|----------5/6---|  |
A|----------------|----------------|----------------|----------------|  |
E|----------------|----------------|----------------|----------------|  |
                                                                        |
                                                                        | x2
e|----------------|----------------|----------------|----------------|  |
B|4-4-4-4-4-4-4-4-|4-4-4-4-4-4-4-4-|----------------|----------------|  |
G|----------------|----------------|7-7-7-7-7-7-7-7-|7-7-7-7-7-7-7-7-|  |
D|----------------|----------------|----------------|----------------|  |
A|3-3-3-3-3-3-3-3-|3-3-3-3-3-3-3-3-|6-6-6-6-6-6-6-6-|6-6-6-6-6-6-6-6-|  |
E|----------------|----------------|----------------|----------------|  |
 |>     >     >      >     >   >    >     >     >      >     >   >      |
e|----------------|----------------|----------------|----------------|  |
B|--3/8-6-8\----3/|8-6---6---3/8-6-|--3/8-6-8\----3/|8-6---6---3/8-6-|  |
G|----------------|----5-----------|----------------|----5-----------|  |
D|----------------|----------------|----------------|----------------|  |
A|----------------|----------------|----------------|----------------|  |
E|----------------|----------------|----------------|----------------|  |
 |                                                                      |
e|----------------|----------------|----------------|----------------|  |
B|------6-8\------|--6-8\--------6-|------6-8\------|--6-8\--------6-|  |
G|----------------|----------------|----------------|----------------|  |
D|--5/8---------5/|8---------5/8---|--5/8---------5/|8---------5/8---|  |
A|----------------|----------------|----------------|----------------|  |
E|----------------|----------------|----------------|----------------|  |
                                                                        |
                                                                        |
e|----------------|----------------|----------------|----------------|  |
B|----------------|----------------|3-3-3-3-3-3-3-3-|3-3-3-3-3-3-3-3-|  |
G|5-5-5-5-5-5-5-5-|5-5-5-5-5-5-5-5-|----------------|----------------|  |
D|----------------|----------------|----------------|----------------|  |
A|----------------|----------------|----------------|----------------|  |
E|4-4-4-4-4-4-4-4-|4-4-4-4-4-4-4-4-|4-4-4-4-4-4-4-4-|4-4-4-4-4-4-4-4-|  |
 |>     >     >      >     >   >    >     >     >      >     >   >      |
e|----------------|----------------|----------------|----------------|  |
B|8-8---8-8---8-8-|--8-8---8---8---|8-8---8-8---8-8-|--8-8---8---8---|  |
G|8-8---8-8---8-8-|--8-8---8---8---|7-7---7-7---7-7-|--7-7---7---7---|  |
D|----------------|----------------|----------------|----------------|  |
A|----------------|----------------|----------------|----------------|  |
E|----------------|----------------|----------------|----------------|  |
 |                                                                      |
e|----------------|----------------|----------------|----------------|  |
B|----8\----------|8\----------8\--|----8\----------|8\------------8\|  |
G|--------8~------|----7~----------|--------8~------|----7~----------|  |
D|5/6---------5/6-|--------5/6-----|5/6---------5/6-|----------5/6---|  |
A|----------------|----------------|----------------|----------------| /
E|----------------|----------------|----------------|----------------|/

 
[Bridge]
  G2
e|10-10-10-10-10-10-10-10-|10-10-10-10-10-10-10-10-|8--8--8--8--8--8--8--8--|8--8--8--8--8--8--8--8--|
B|11-11-11-11-11-11-11-11-|11-11-11-11-11-11-11-11-|11-11-11-11-11-11-11-11-|11-11-11-11-11-11-11-11-|
G|------------------------|------------------------|------------------------|------------------------|
D|------------------------|------------------------|------------------------|------------------------|
A|------------------------|------------------------|------------------------|------------------------|
E|------------------------|------------------------|------------------------|------------------------|
  >        >        >         >        >     >      >        >        >         >        >     >

e|------------------------|------------------------|------------------------|------------------------|
B|5--5--5--5--5--5--5--5--|5--5--5--5--5--5--5--5--|4--4--4--4--4--4--4--4--|4--3--3--3--3--3--3--3--|
G|5--5--5--5--5--5--5--5--|5--5--5--5--5--5--5--5--|5--5--5--5--5--5--5--5--|5--5--5--5--5--5--5--5--|
D|------------------------|------------------------|------------------------|------------------------|
A|------------------------|------------------------|------------------------|------------------------|
E|------------------------|------------------------|------------------------|------------------------|
  >        >        >         >        >     >      >        >        >         >        >     >
 
    G2
e|10-10-10-10-10-10-10-10-|10-10-10-10-10-10-10-10-|8--8--8--8--8--8--8--8--|8--8--8--8--8--8--8--8--|
B|11-11-11-11-11-11-11-11-|11-11-11-11-11-11-11-11-|11-11-11-11-11-11-11-11-|11-11-11-11-11-11-11-11-|
G|------------------------|------------------------|------------------------|------------------------|
D|------------------------|------------------------|------------------------|------------------------|
A|------------------------|------------------------|------------------------|------------------------|
E|------------------------|------------------------|------------------------|------------------------|
 |> G3     >        >         >        >     >      >        >        >         >        >     >
e|------------------3-----|------------------------|------------------3-----|------------------------|
B|---------3--------------|------------------------|---------1--------------|------------------------|
G|3-----------------------|------------------------|3-----------------------|------------------------|
D|------------------------|------------------------|------------------------|------------------------|
A|------------------------|------------------------|------------------------|------------------------|
E|------------------------|------------------------|------------------------|------------------------|

                                                                                                        x2
e|------------------------|------------------------|------------------------|------------------------|
B|5--5--5--5--5--5--5--5--|5--5--5--5--5--5--5--5--|4--4--4--4--4--4--4--4--|4--3--3--3--3--3--3--3--|
G|5--5--5--5--5--5--5--5--|5--5--5--5--5--5--5--5--|5--5--5--5--5--5--5--5--|5--5--5--5--5--5--5--5--|
D|------------------------|------------------------|------------------------|------------------------|
A|------------------------|------------------------|------------------------|------------------------|
E|------------------------|------------------------|------------------------|------------------------|
 |> G3     >        >         >        >     >      >        >        >         >        >     >
e|------------------3-----|------------------------|------------------------|------------------------|
B|------------------5-----|------------------------|------------------4-----|3-----------------3-----|
G|---------2--------------|------------------------|---------5--------------|----------5-------------|
D|5-----------------------|------------------------|6-----------------------|------------------------|
A|------------------------|------------------------|------------------------|------------------------|
E|------------------------|------------------------|------------------------|------------------------|

  G1
e|----------------|----------------|----------------|----------------|
B|4-4-4-4-4-4-4-4-|4-4-4-4-4-4-4-4-|----------------|----------------|
G|----------------|----------------|7-7-7-7-7-7-7-7-|7-7-7-7-7-7-7-7-|
D|----------------|----------------|----------------|----------------|
A|3-3-3-3-3-3-3-3-|3-3-3-3-3-3-3-3-|6-6-6-6-6-6-6-6-|6-6-6-6-6-6-6-6-|
E|----------------|----------------|----------------|----------------|
  >     >     >      >     >  >     >     >     >      >     >  >   

e|----------------|----------------|----------------|----------------|
B|----------------|----------------|3-3-3-3-3-3-3-3-|3-3-3-3-3-3-3-3-|
G|5-5-5-5-5-5-5-5-|5-5-5-5-5-5-5-5-|----------------|----------------|
D|----------------|----------------|----------------|----------------|
A|----------------|----------------|----------------|----------------|
E|4-4-4-4-4-4-4-4-|4-4-4-4-4-4-4-4-|1-1-1-1-1-1-1-1-|1-1-1-1-1-1-1-1-|
  >     >     >      >     >  >     >     >     >      >     >  >   

[Verse 3]
  G2
e|----------------|----------------|----------------|----------------|
B|------4---------|------4---------|------3---------|------3---------|
G|----------5---5-|----------5---5-|----------5---5-|----------5---5-|
D|------------5---|------------5---|------------5---|------------5---|
A|3---------------|3---------------|6---------------|6---------------|
E|----------------|----------------|----------------|----------------|

e|----------------|----------------|----------------|----------------|
B|------4---------|------4---------|------3---1---1-|------3---1---1-|
G|---------5---5--|----------5---5-|------------0---|-------------0--|
D|-----------6----|------------6---|----------------|----------------|
A|----------------|----------------|----------------|----------------|
E|4---------------|4---------------|1---------------|1---------------|

e|----------------|----------------|----------------|----------------|
B|------4---------|------4---------|------3---------|------3---------|
G|----------5---5-|----------5---5-|----------5---5-|----------5---5-|
D|------------5---|------------5---|------------5---|------------5---|
A|3---------------|3---------------|6---------------|6---------------|
E|----------------|----------------|----------------|----------------|

e|----------------|----------------|----------------|----------------|
B|------4---------|------4---------|------3---------|------3---------|
G|---------5---5--|----------5---5-|----------5---5-|----------5---5-|
D|-----------6----|------------6---|------------5---|------------5---|
A|----------------|----------------|----------------|----------------|
E|4---------------|4---------------|4---------------|4---------------|

[Chorus]
    G1
e|----------------|----------------|----------------|----------------| \
B|4-4-4-4-4-4-4-4-|4-4-4-4-4-4-4-4-|----------------|----------------|  \
G|----------------|----------------|7-7-7-7-7-7-7-7-|7-7-7-7-7-7-7-7-|  |
D|----------------|----------------|----------------|----------------|  |
A|3-3-3-3-3-3-3-3-|3-3-3-3-3-3-3-3-|6-6-6-6-6-6-6-6-|6-6-6-6-6-6-6-6-|  |
E|----------------|----------------|----------------|----------------|  |
 |> G2  >     >      >     >   >    >     >     >      >     >   >      |
e|----------------|----------------|----------------|----------------|  |
B|--3/8-6-8\----3/|8-6---6---3/8-6-|--3/8-6-8\----3/|8-6---6---3/8-6-|  |
G|----------------|----5-----------|----------------|----5-----------|  |
D|----------------|----------------|----------------|----------------|  |
A|----------------|----------------|----------------|----------------|  |
E|----------------|----------------|----------------|----------------|  |
 |  G3                                                                  |
e|----------------|----------------|----------------|----------------|  |
B|------6-8\------|--6-8\--------6-|------6-8\------|--6-8\--------6-|  |
G|----------------|----------------|----------------|----------------|  |
D|--5/8---------5/|8---------5/8---|--5/8---------5/|8---------5/8---|  |
A|----------------|----------------|----------------|----------------|  |
E|----------------|----------------|----------------|----------------|  |
                                                                        |
                                                                        |
e|----------------|----------------|----------------|----------------|  |
B|----------------|----------------|3-3-3-3-3-3-3-3-|3-3-3-3-3-3-3-3-|  |
G|5-5-5-5-5-5-5-5-|5-5-5-5-5-5-5-5-|----------------|----------------|  |
D|----------------|----------------|----------------|----------------|  |
A|----------------|----------------|----------------|----------------|  |
E|4-4-4-4-4-4-4-4-|4-4-4-4-4-4-4-4-|1-1-1-1-1-1-1-1-|1-1-1-1-1-1-1-1-|  |
 |>     >     >      >     >   >    >     >     >      >     >   >      |
e|----------------|----------------|----------------|----------------|  |
B|--3/8-6-8\----3/|8-6---6---3/8-6-|--3/8-6-8\----3/|8-6---6---3/8-6-|  |
G|----------------|----5-----------|----------------|----5-----------|  |
D|----------------|----------------|----------------|----------------|  |
A|----------------|----------------|----------------|----------------|  |
E|----------------|----------------|----------------|----------------|  |
 |                                                                      |
e|----------------|----------------|----------------|----------------|  |
B|----8\----------|8\----------8\--|----8\----------|8\------------8\|  |
G|--------8~------|----7~----------|--------8~------|----7~----------|  |
D|5/6---------5/6-|--------5/6-----|5/6---------5/6-|----------5/6---|  |
A|----------------|----------------|----------------|----------------|  |
E|----------------|----------------|----------------|----------------|  |
                                                                        |
                                                                        | x2
e|----------------|----------------|----------------|----------------|  |
B|4-4-4-4-4-4-4-4-|4-4-4-4-4-4-4-4-|----------------|----------------|  |
G|----------------|----------------|7-7-7-7-7-7-7-7-|7-7-7-7-7-7-7-7-|  |
D|----------------|----------------|----------------|----------------|  |
A|3-3-3-3-3-3-3-3-|3-3-3-3-3-3-3-3-|6-6-6-6-6-6-6-6-|6-6-6-6-6-6-6-6-|  |
E|----------------|----------------|----------------|----------------|  |
 |>     >     >      >     >   >    >     >     >      >     >   >      |
e|----------------|----------------|----------------|----------------|  |
B|--3/8-6-8\----3/|8-6---6---3/8-6-|--3/8-6-8\----3/|8-6---6---3/8-6-|  |
G|----------------|----5-----------|----------------|----5-----------|  |
D|----------------|----------------|----------------|----------------|  |
A|----------------|----------------|----------------|----------------|  |
E|----------------|----------------|----------------|----------------|  |
 |                                                                      |
e|----------------|----------------|----------------|----------------|  |
B|------6-8\------|--6-8\--------6-|------6-8\------|--6-8\--------6-|  |
G|----------------|----------------|----------------|----------------|  |
D|--5/8---------5/|8---------5/8---|--5/8---------5/|8---------5/8---|  |
A|----------------|----------------|----------------|----------------|  |
E|----------------|----------------|----------------|----------------|  |
                                                                        |
                                                                        |
e|----------------|----------------|----------------|----------------|  |
B|----------------|----------------|3-3-3-3-3-3-3-3-|3-3-3-3-3-3-3-3-|  |
G|5-5-5-5-5-5-5-5-|5-5-5-5-5-5-5-5-|----------------|----------------|  |
D|----------------|----------------|----------------|----------------|  |
A|----------------|----------------|----------------|----------------|  |
E|4-4-4-4-4-4-4-4-|4-4-4-4-4-4-4-4-|4-4-4-4-4-4-4-4-|4-4-4-4-4-4-4-4-|  |
 |>     >     >      >     >   >    >     >     >      >     >   >      |
e|----------------|----------------|----------------|----------------|  |
B|--3/8-6-8\----3/|8-6---6---3/8-6-|--3/8-6-8\----3/|8-6---6---3/8-6-|  |
G|----------------|----5-----------|----------------|----5-----------|  |
D|----------------|----------------|----------------|----------------|  |
A|----------------|----------------|----------------|----------------|  |
E|----------------|----------------|----------------|----------------|  |
 |                                                                      |
e|----------------|----------------|----------------|----------------|  |
B|----8\----------|8\----------8\--|----8\----------|8\------------8\|  |
G|--------8~------|----7~----------|--------8~------|----7~----------|  |
D|5/6---------5/6-|--------5/6-----|5/6---------5/6-|----------5/6---|  |
A|----------------|----------------|----------------|----------------| /
E|----------------|----------------|----------------|----------------|/

[Outro]
  G1
e|----------------|----------------|----------------|----------------|
B|4-4-4-4-4-4-4-4-|4-4-4-4-4-4-4-4-|4-4-4-4-4-4-4-4-|4-4-4-4-4-4-4-4-|
G|----------------|----------------|----------------|----------------|
D|----------------|----------------|----------------|----------------| x2
A|3-3-3-3-3-3-3-3-|3-3-3-3-3-3-3-3-|3-3-3-3-3-3-3-3-|3-3-3-3-3-3-3-3-|
E|----------------|----------------|----------------|----------------|
  >     >     >      >     >   >    >     >     >      >     >   >    


***********************************

| >   Accent
| /   Slide up
| \   Slide down
| ~   Vibrato
 
***********************************
Комментарии
0.0443 s, 0.79MB