Тональность0+
Шрифт0
Комментарии: 0
Автопрокрутка

The Welzeins - Miss Mosshart

Оцените подбор:
0
оценок: 0
16
Добавить в избранное

Аккорды в подборе
Скрыть
[Intro]
e|------------------------------------------------------------------------------|
B|------------------------------------------------------------------------------|
G|----------------------13----13--11----11--6----6--13-13-13-13-13--------------|
D|---7---7---12---7-----14----14--12----12--7----7--14-14-14-14-14--------------|
A|---7---7---12---7-----14----14--12----12--7----7--14-14-14-14-14--------------|
E|---5---5---10---5-----12----12--10----10--5----5--12-12-12-12-12--------------|

[Chorus]
e|------------------------------------------------------------------------------|
B|------------------------------------------------------------------------------|
G|------------------------------------------------------------------------------|
D|------------------------------------------------------------------------------|
A|------------------------------------------------------------------------------|
E|---0-3-4-5-5-3-0-0-3-4-5-5-5-3-0-0-3-4-5-5-5-3-0-0-3-4-5-5-5-3-0-0------------|

e|---------------------------------------------------------------------------------------|
B|---------------------------------------------------------------------------------------|
G|---------------------------------------------------------------------------------------|
D|-------------------------------------------------------------------2-2-0---2-----------|
A|---3-4-5-5-3-0-0-3-4-5-5-5-3-0-0-------------------------------3-4-------2---5-5-5-3-0-|
E|---------------------------------3-4-5-5-5-3-0-0-3-4-5-5-5-3-0-------------------------|

e|-------------------------------------|
B|-------------------------------------|
G|-------------------------------------|
D|-------------------------------------|
A|-------------------------------------|
E|---0-3-4-5-5-3-0-0-5-3-0-0-0-0-0-0-3-|

After this chorus guitar you go straight back in to the intro

[Intro]
e|------------------------------------------------------------------------------|
B|------------------------------------------------------------------------------|
G|----------------------13----13--11----11--6----6--13-13-13-13-13--------------|
D|---7---7---12---7-----14----14--12----12--7----7--14-14-14-14-14--------------|
A|---7---7---12---7-----14----14--12----12--7----7--14-14-14-14-14--------------|
E|---5---5---10---5-----12----12--10----10--5----5--12-12-12-12-12--------------|

[Chorus]
e|------------------------------------------------------------------------------|
B|------------------------------------------------------------------------------|
G|------------------------------------------------------------------------------|
D|------------------------------------------------------------------------------|
A|------------------------------------------------------------------------------|
E|---0-3-4-5-5-3-0-0-3-4-5-5-5-3-0-0-3-4-5-5-5-3-0-0-3-4-5-5-5-3-0-0------------|

e|---------------------------------------------------------------------------------------|
B|---------------------------------------------------------------------------------------|
G|---------------------------------------------------------------------------------------|
D|-------------------------------------------------------------------2-2-0---2-----------|
A|---3-4-5-5-3-0-0-3-4-5-5-5-3-0-0-------------------------------3-4-------2---5-5-5-3-0-|
E|---------------------------------3-4-5-5-5-3-0-0-3-4-5-5-5-3-0-------------------------|

e|---------------------------------------|
B|---------------------------------------|
G|---------------------------------------|
D|-------------------------------------7-|
A|-------------------------------------7-|
E|---0-3-4-5-5-3-0-0-5-3-0-0-0-0-0-0-3-5-|

[Solo]
e|-----------------------------------------------------------------------|
B|-----------------------------------------------------------------------|
G|-----------------------------------------------------------------------|
D|---12-13-12-10-7-5--12-13-12-10-7-5--12-13-12-10-7-5-7-5-7-5-7-10-7-10-|
A|-----------------------------------------------------------------------|
E|-----------------------------------------------------------------------|

e|---------------------------------------------------------------------|
B|---------------------------------------------------------------------|
G|---------------------------------------------------------------------|
D|---12-12-12-12-12-12-12-10-------------------10----------14-17-18-19-|
A|---------------------------10-12-10-12-10-12----12-10-12-------------|
E|---------------------------------------------------------------------|
Tremolo the last four notes of the solo starting at the 14th

[Outro]
e|------------------------------------------------------------------------------|
B|------------------------------------------------------------------------------|
G|------------------------------------------------------------------------------|
D|------------------------------------------------------------------------------|
A|------------------------------------------------------------------------------|
E|---0-3-4-5-5-3-0-0-3-4-5-5-5-3-0-0-3-4-5-5-5-3-0-0-3-4-5-5-5-3-0-0------------|

e|---------------------------------------------------------------------------------------|
B|---------------------------------------------------------------------------------------|
G|---------------------------------------------------------------------------------------|
D|-------------------------------------------------------------------2-2-0---2-----------|
A|---3-4-5-5-3-0-0-3-4-5-5-5-3-0-0-------------------------------3-4-------2---5-5-5-3-0-|
E|---------------------------------3-4-5-5-5-3-0-0-3-4-5-5-5-3-0-------------------------|

e|------------------------------------------------------|
B|------------------------------------------------------|
G|------------------------------------------------------|
D|-------2-2-0---2-----------------2-2-0---2------------|
A|---3-4-------2---5-5-5-3-0---3-4-------2---5-5-5-3-0--|
E|------------------------------------------------------|

e|--------------------------------------------------|
B|--------------------------------------------------|
G|--------------------------------------------------|
D|-------------------------------------7-10-12-5-7--|
A|-------------------------------------7-10-12-5-7--|
E|---0-3-4-5-5-3-0-0-5-3-0-0-0-0-0-0-3-5-8--10-3-5--|
Комментарии
0.0360 s, 0.74MB