Тональность0+
Шрифт0
Комментарии: 0
Автопрокрутка

The Verve - South Pacific, аккорды

    	    	Вступление

South Pacific The Verve (Sawmills Studio Footage)

[Chords]
D       x x 0 2 3 2
Bm      x 2 4 4 3 2
E/G#    4 7 6 4 5 4
G       3 5 5 4 3 3
Em      0 2 2 0 0 0
F#m     2 4 4 2 2 2

[Intro]

12-string electric w/slow Leslie/rotary effect:

   D
e|-2--2--2-2--------2--2--2-2--------2--2--2-2--------2--2--2-2--------|
B|-3--3--3-3--------3--3--3-3--------3--3--3-3--------3--3--3-3--------|
G|-2--2--2-2------0-2--2--2-2------0-2--2--2-2------0-2--2--2-2--------|
D|-0--0--0-0--2h4---0--0--0-0--2h4---0--0--0-0--2h4---0--0--0-0--2h4---|
A|---------------------------------------------------------------------|
E|---------------------------------------------------------------------|


   D
e|-2--2--2-2--------2--2--2-2--------2--2--2-2--------2--2--2-2--------|
B|-3--3--3-3--------3--3--3-3--------3--3--3-3--------3--3--3-3--------|
G|-2--2--2-2------0-2--2--2-2------0-2--2--2-2------0-2--2--2-2--------|
D|-0--0--0-0--2h4---0--0--0-0--2h4---0--0--0-0--2h4---0--0--0-0--2h4---|
A|---------------------------------------------------------------------|
E|---------------------------------------------------------------------|



[Verse 1]
D
 Seems to me, that I won’t get anywhere, living here

Might as well lose my fear
Bm           D
 I’ll try to get it all
Bm
 I’m gonna a drive to the bridge
             D
Gonna let it take me all alone


[Chorus] (picked)

   E/G#                G                   D
e|-4--------------------3-------------------2------------|
B|-5--------------------3-------------------3------------|
G|-4--------------------4-------------------2------------|
D|-6--------------------5-------------------0------------|
A|-7--------------------5--------------------------------|
E|-4--------------------3--------------------------------|
    Good lights burn my eyes, it ain’t a surprise

E/G#                                        G
   Good lights roll that burn the lids of my eyes
                                 D
Foolish talkin’ always gets me inside



[Verse 2]
D                               D
 I get the car, I drive...  for miles
                     D
I’m gonna meet those smiles
Bm                 D
 I hurt, there’s a storm comin’ down
Bm
 Gonna drive to the bridge
             D
Gonna let it meet me on my own
E/G#                          G
Midnight’s gotta burn in my eyes
                     D
Foolish talk gets me inside

E/G#                          G
Midnight’s gotta burn in my eyes
                     D
Foolish talk gets me inside


[Outro]
D   D   D   D
G   D
Em  G  F#m  D
Em  G  F#m  D
G   D  Em   G
F#m  D




************************************

|/   Slide up
|\   Slide down
|h   Hammer-on

************************************
		
    

Аккорды в подборе (аппликатуры)
Скрыть
Оцените подбор:
0
оценок: 0
17
0
Каким боем играть песню The Verve - South Pacific? Голосуй!
Виды гитарного боя и как их играть
Видео песни The Verve - South Pacific
Комментарии
0.0564 s, 3.87MB, p