Тональность0+
Шрифт0
Комментарии: 0
Автопрокрутка

The Fall - Victoria, аккорды

    	    	Вступление

Victoria - as covered by The Fall
========


[Intro]
 Beat:  1 & 2 & 3 & 4 | 1 & 2 & 3 & 4 | 1 & 2 & 3 & 4 | 1 & 2 & 3 & 4 | 1 & 2 & 3 & 4 | 1 & 2 & 3 & 4 |
    E |---------------|---------------|---------------|---------------|---------------|---------------|
    B |---------------|---------------|---------------|---------------|---------------|---------------|
    G |-0---0---0---0-|---------------|---------------|---------------|---------------|---------------|
    D |---------------|-2---2---2---2-|-0---0---0---0-|---------------|---------------|---------------|
    A |---------------|---------------|---------------|-2---2---2---2-|---------------|---------------|
    E |---------------|---------------|---------------|---------------|-3-------3-----|-3-------3-----|
Chord: (G)                                                              G               G

 Beat:  1 & 2 & 3 & 4 | 1 & 2 & 3 & 4 | 1 & 2 & 3 & 4 | 1 & 2 & 3 & 4 | 1 & 2 & 3 & 4 | 1 & 2 & 3 & 4 |
    E |---------------|---------------|---------------|---------------|---------------|---------------|
    B |---------------|---------------|---------------|---------------|---------------|---------------|
    G |-0---0---0---0-|---------------|---------------|---------------|---------------|---------------|
    D |---------------|-2---2---2---2-|-0---0---0---0-|---------------|---------------|---------------|
    A |---------------|---------------|---------------|-2---2---2---2-|---------------|---------------|
    E |---------------|---------------|---------------|---------------|-3-------3-----|-3-------3-----|
Chord: (G)                                                              G               G


[Verse 1]
D / / / G / / / D / / / G / / /
        D          G
It was bad and obscene,
         C            G
and the rich were so mean
         D             G
Stately homes for the Lords,
         C               G
croquet lawns, village greens
       D         G
Victoria was my queen


[Chorus]
    G  D      Em Bm        D         G
Victoria, Victoria, Victoria, Victoria


[Verse 2]
       D           G
I was born, lucky me
        C           G
in the land that I love
            D          G
Though I'm poor, I am free
         D           G
When I grow I shall fight
          C           G
for this land I will die
         D         G
Let her sun never set on...


[Chorus]
    G  D      Em Bm        D         G
Victoria, Victoria, Victoria, Victoria


[Repeat Intro]
 Beat:  1 & 2 & 3 & 4 | 1 & 2 & 3 & 4 | 1 & 2 & 3 & 4 | 1 & 2 & 3 & 4 | 1 & 2 & 3 & 4 | 1 & 2 & 3 & 4 |
    E |---------------|---------------|---------------|---------------|---------------|---------------|
    B |---------------|---------------|---------------|---------------|---------------|---------------|
    G |-0---0---0---0-|---------------|---------------|---------------|---------------|---------------|
    D |---------------|-2---2---2---2-|-0---0---0---0-|---------------|---------------|---------------|
    A |---------------|---------------|---------------|-2---2---2---2-|---------------|---------------|
    E |---------------|---------------|---------------|---------------|-3-------3-----|-3-------3-----|
Chord: (G)                                                              G               G

 Beat:  1 & 2 & 3 & 4 | 1 & 2 & 3 & 4 | 1 & 2 & 3 & 4 | 1 & 2 & 3 & 4 | 1 & 2 & 3 & 4 | 1 & 2 & 3 & 4 |
    E |---------------|---------------|---------------|---------------|---------------|---------------|
    B |---------------|---------------|---------------|---------------|---------------|---------------|
    G |-0---0---0---0-|---------------|---------------|---------------|---------------|---------------|
    D |---------------|-2---2---2---2-|-0---0---0---0-|---------------|---------------|---------------|
    A |---------------|---------------|---------------|-2---2---2---2-|---------------|---------------|
    E |---------------|---------------|---------------|---------------|-3-------3-----|-3-------3-----|
Chord: (G)                                                              G               G


[Verse 3]
     D        G
Canada to India
        C         G
Australia to Cornwall
      D            G
Singapore to Hong Kong
          D           G
From the West to the East
          C           G
From the rich to the poor
       D            G
Victoria loved them all


[Chorus]
    G  D      Em Bm        D         G
Victoria, Victoria, Victoria, Victoria


[Chorus]
    G  D      Em Bm        D         G
Victoria, Victoria, Victoria, Victoria


[Middle Eight]
 Beat:  1 & 2 & 3 & 4 | 1 & 2 & 3 & 4 | 1 & 2 & 3 & 4 | 1 & 2 & 3 & 4 |
    E |---------------|---------------|---------------|---------------|
    B |---------------|---------------|---------------|---------------|
    G |---------------|---------------|---------------|---------------|
    D |-2---2---2-2-2-|-0-0-0---0-0---|-4---4---4-4-4-|-2-2-2---2-0---|
    A |---------------|---------------|---------------|---------------|
    E |---------------|---------------|---------------|---------------|
Chord:  Em              D               D               C

 Beat:  1 & 2 & 3 & 4 | 1 & 2 & 3 & 4 | 1 & 2 & 3 & 4 | 1 & 2 & 3 & 4 |
    E |---------------|---------------|---------------|---------------|
    B |---------------|---------------|---------------|---------------|
    G |---------------|---------------|---------------|---------------|
    D |-2---2---2-2-2-|-0-0-0---0-0---|-4---4---4-4-4-|-2-2-2---2-0---|
    A |---------------|---------------|---------------|---------------|
    E |---------------|---------------|---------------|---------------|
Chord:  Em              D               D               C


[Coda]
 Beat:  1 & 2 & 3 & 4 | 1 & 2 & 3 & 4 | 1 & 2 & 3 & 4 | 1 & 2 & 3 & 4 | 1 & 2 & 3 & 4 | 1 & 2 & 3 & 4 |
    E |---------------|---------------|---------------|---------------|---------------|---------------|
    B |---------------|---------------|---------------|---------------|---------------|---------------|
    G |-0---0---0---0-|---------------|---------------|---------------|---------------|---------------|
    D |---------------|-2---2---2---2-|-0---0---0---0-|---------------|-0-------0-----|-0-------0-----|
    A |---------------|---------------|---------------|-2---2---2---0-|---------------|---------------|
    E |---------------|---------------|---------------|---------------|---------------|---------------|
Chord:  G                                                               D               D
    Victo...                                                       ...ria

 Beat:  1 & 2 & 3 & 4 | 1 & 2 & 3 & 4 | 1 & 2 & 3 & 4 | 1 & 2 & 3 & 4 | 1 & 2 & 3 & 4 | 1 & 2 & 3 & 4 |
    E |---------------|---------------|---------------|---------------|---------------|---------------|
    B |---------------|---------------|---------------|---------------|---------------|---------------|
    G |-0---0---0---0-|---------------|---------------|---------------|---------------|---------------|
    D |---------------|-2---2---2---2-|-0---0---0---0-|---------------|-0-------0-----|-0-------0-----|
    A |---------------|---------------|---------------|-2---2---2---0-|---------------|---------------|
    E |---------------|---------------|---------------|---------------|---------------|---------------|
Chord:  Em                                                              Bm              Bm
    Victo...                                                       ...ria
       D         G
Victoria, Victoria		
    

Аккорды в подборе (аппликатуры)
Скрыть
G Варианты D Варианты C Варианты Em Варианты Bm Варианты
Оцените подбор:
0
оценок: 0
45
0
Каким боем играть песню The Fall - Victoria? Голосуй!
Виды гитарного боя и как их играть
Видео песни The Fall - Victoria
Комментарии
0.0697 s, 3.92MB, p