Тональность0+
Шрифт0
Комментарии: 0
Автопрокрутка

The F16s - Moon Child

Оцените подбор:
0
оценок: 0
19
Добавить в избранное

Аккорды в подборе
Скрыть
"MOON CHILD"
by The F16s 


tabbed by:    Dropdeee
tuning:       Standard (E A D G B e)    
video:        https://youtu.be/J2WGTqDxosQ


 [Intro]

  Gtr1
e|--9----7---5--5/7------9--7---5--5/7----|-7/9----7---5--5/7-----------------------|
B|--10---9---7---/9--9---10-9---7---/9----|-9/10---9---7---/9--9---7-7-------7/9--7-|
G|-------------------9------------------9-|--------------------9---7-7---7-X-7/9--7-|
D|----------------------------------------|-----------------------------------------|
A|----------------------------------------|-----------------------------------------|
E|----------------------------------------|-----------------------------------------|

e|-7/9----7---5--5/7------9--7---5--5/7----|-7/9----7---5--5/7-----------------|
B|-9/10---9---7---/9--9---10-9---7---/9----|-9/10---9---7---/9--9---7-7---7\---|
G|--------------------9------------------9-|--------------------9---7-7---7\---|
D|-----------------------------------------|-----------------------------------|
A|-----------------------------------------|-----------------------------------|
E|-----------------------------------------|-----------------------------------|

  Gtr2
e|--------------------------------------------------|
B|------5-----5-----5-----5-----5-----5-----5-----5-|
G|----6-----6-----6-----6-----6-----6-----6-----6---|
D|-7-----7-----7-----7-----7-----7-----7-----7------|
A|--------------------------------------------------|
E|--------------------------------------------------|

e|--------------------------------------------------------------|
B|--------7-----7-----7-----7---------12-------12-------12------|
G|------7-----7-----7-----7--------13-------13-------13---------|
D|-7/9-----9-----9-----9-----9/14-------14-------14-------14--9-|
A|--------------------------------------------------------------|
E|--------------------------------------------------------------|

e|--------------------------------------------------|
B|------5-----5-----5-----5-----5-----5-----5-----5-|
G|----6-----6-----6-----6-----6-----6-----6-----6---|
D|-7-----7-----7-----7-----7-----7-----7-----7------|
A|--------------------------------------------------|
E|--------------------------------------------------|

e|-------------------------------------------------------|
B|--------7-----7-----7-----7---------12-------12-12-----|
G|------7-----7-----7-----7--------13-------13-----------|
D|-7/9-----9-----9-----9-----9/14-------14--------14-----|
A|-------------------------------------------------------|
E|-------------------------------------------------------|


************************************

| x   Dead note
| /   Slide up
| \   Slide down

************************************
Комментарии
0.0311 s, 0.73MB