Тональность0+
Шрифт0
Комментарии: 0
Автопрокрутка

The Charlatans - Flowers, аккорды

Оцените подбор:
0
оценок: 0
73
Добавить в избранное

Аккорды в подборе (аппликатуры)
Скрыть
    	    	THE CHARLATANS - FLOWER (From the album Some Friendly)


[Intro] 0:00
G|--------------|---------------------|
D|--------------|---------------------|
A|-0--0-0-3-3-3-|-8--8--10-10-8-h10-8-|
E|--------------|---------------------| x10


[Verse 1] 0:49
G|--------------|---------------------|
D|--------------|---------------------|
A|-0--0-0-3-3-3-|-8--8--10-10-8-h10-8-|
E|--------------|---------------------| x8


[Chorus] 1:28
G|-----------------|
D|-----7-------7---|
A|-7-------5-------|
E|-----------------| x2


[Intro repeat] 1:48
G|--------------|---------------------|
D|--------------|---------------------|
A|-0--0-0-3-3-3-|-8--8--10-10-8-h10-8-|
E|--------------|---------------------| x4


[Verse 2] 2:08
G|--------------|---------------------|
D|--------------|---------------------|
A|-0--0-0-3-3-3-|-8--8--10-10-8-h10-8-|
E|--------------|---------------------| x8


[Chorus] 2:47
G|-----------------|
D|-----7-------7---|
A|-7-------5-------|
E|-----------------| x2


[Bridge] 3:06
G|-----------------------|-----------------------|-----------------------|-----------------------|
D|-----------------------|-----------------------|-----------------------|---------------------5-|
A|---------------------3-|-5-5-5--5---5--5-5-5-3-|---------------------3-|-5-5-5--5---5--5-5-5---|
E|-5-5-5--5---5--5-5-5---|-----------------------|-5-5-5--5---5--5-5-5---|-----------------------|

G|-----------------------|-----------------------|-----------------------|-----------------------|
D|-7-7-7--7---7--7-7-7-5-|-----------------------|-7-7-7--7---7--7-7-7-5-|-----------------------|
A|-----------------------|-5-5-5--5---5--5-5-5-3-|-----------------------|-5-5-5--5---5--5-5-5-3-|
E|-----------------------|-----------------------|-----------------------|-----------------------|


[Intro repeat] 3:26
G|--------------|---------------------|
D|--------------|---------------------|
A|-0--0-0-3-3-3-|-8--8--10-10-8-h10-8-|
E|--------------|---------------------| x6


[Chorus Variation] 3:56
G|---------------------|---------------------|---------------------|---------------------|
D|---------------------|-7-7-7--7--7--7--7-7-|---------------------|---------------------|
A|-7-7-7--7--7--7--7-7-|---------------------|-5-5-5--5--5--5--5-5-|-7-7-7--7--7--0--0-0-|
E|---------------------|---------------------|---------------------|---------------------|

G|---------------------|---------------------|---------------------|------------------|
D|---------------------|-7-7-7--7--7--7--7-7-|---------------------|------------------|
A|-7-7-7--7--7--7--7-7-|---------------------|-5-5-5--5--5--5--5-5-|-7-7-7--7--7-7--7-|
E|---------------------|---------------------|---------------------|------------------|


[Outro] 4:54
G|--------------|---------------------|--------------|---------------------| 
D|--------------|---------------------|--------------|---------------------| 
A|-0--0-0-3-3-3-|-8--8--10-10-8-h10-8-|-0--0-0-3-3-3-|-8--8--10-10-8-h10-8-|
E|--------------|---------------------|--------------|---------------------| 

G|--------------|---------------------|--------------|---------------------| 
D|--------------|---------------------|--------------|---------------------| 
A|-0--0-0-3-3-3-|-8--8--10-10-8-h10-8-|-0--0-0-3-3-3-|-8--8--10-10-8-h10-8-|
E|--------------|---------------------|--------------|---------------------| 

G|--------------|
D|--------------|
A|-0------------|
E|--------------|



************************************

| h  Hammer-on

************************************		
    
Каким боем играть песню The Charlatans - Flowers? Голосуй!
Виды гитарного боя и как их играть
  • Хотите поделиться видео разбором песни или кавером?
  • Подобрали альтернативную версию песни (например, проще, без баррэ)?
  • Хотите узнать, как играют эту песню, какой бой?
Видео песни The Charlatans - Flowers
Комментарии
0.0505 s, 0.74MB