Тональность0+
Шрифт0
Комментарии: 0
Автопрокрутка

The Blues Brothers - Groove Me

Оцените подбор:
0
оценок: 0
8
Добавить в избранное

Аккорды в подборе
Скрыть
0:00  Intro        
G|-----5------5------5-7/9-7-5-----------------------------------|
D|---5------5------5-----------7------------4-7------------------|
A|-7------6------7--------------------4--7------------4--7-7-7-7-|     
E|-------------------------------5-5-------------5-5-------------|  

0:18  Couplet   
G|------------------------------------------------------------------------|
D|--------------4-7---------------4-7---------------4-7---------------4-7-|
A|------4--7--------------4--7--------------4--7--------------4--7--------|     
E|-5-5---------------5-5---------------5-5---------------5-5--------------|  

G|--------------6--9---------------------------------6--9---------------6--9---|
D|------6--9-----------------------4-7-------6--9---------------6--9-----------|
A|-7-7---------------------4--7---------7-7----------------7-7-----------------|     
E|--------------------5-5------------------------------------------------------|  
 
G|------------------------------------------------------------------------------------|
D|--------------4-7--------------4-7--------------------------------------------------|
A|------4--7--------------4--7--------------------------------------------------------|     
E|-5-5---------------5-5--------------8-8--8-8-8-7-8-9-10-0-0-2--2-2-3--3-3-4---4-4-5-|  

G|--------------------------------|
D|-----------4-7----------4-4-4-4-|
A|----4--7-------------4----------|     
E|-5--------------5-5-------------|  

1:17  Couplet   
G|------------------------------------------------------------------------|
D|--------------4-7---------------4-7---------------4-7---------------4-7-|
A|------4--7--------------4--7--------------4--7--------------4--7--------|     
E|-5-5---------------5-5---------------5-5---------------5-5--------------|  

G|--------------6--9---------------------------------6--9---------------6--9---|
D|------6--9-----------------------4-7-------6--9---------------6--9-----------|
A|-7-7---------------------4--7---------7-7----------------7-7-----------------|     
E|--------------------5-5------------------------------------------------------|  
 
G|------------------------------------------------------------------------------------|
D|--------------4-7--------------4-7--------------------------------------------------|
A|------4--7--------------4--7--------------------------------------------------------|     
E|-5-5---------------5-5--------------8-8--8-8-8-7-8-9-10-0-0-2--2-2-3--3-3-4---4-4-5-|  

G|--------------------------------|
D|-----------4-7----------4-4-4-4-|
A|----4--7-------------4----------|     
E|-5--------------5-5-------------|  

2:17  Solo    
G|-------------------------------------------------------------------------------------|
D|-------------------------------------------------------------------------------------|
A|-------------------------------------------------------------------------------------|     
E|-8-8-8--8-8-8-7-8--8-8-5-5--8-8-5-5-5-6-7-8-8--8-8-8-7-8--8-8-5-5--8-8-5-5-5-6-7-8-8-|  

G|----------------------------------------------------------------------|
D|----------------------------------------------------------------------|
A|----------------------------------------------------------------------|     
E|-8-8-8-7-8--8-8-5-5--8-8-5-5--5-4-3-2-2-2-2-2-2-2-2-2-1-1-1-1-1-1-1-1-|  

G|---------------------------------------------------------------------------|
D|----------------5-8-----------------------10-10---10---10-10---11----12-12-|
A|----------5--8------------5--8--8--8--7------------------------------------|     
E|-6-6-6-6-------------6-6----------------8-------8----8-------9----10-------|  
 
G|-------------------------------------------------------------------------------|
D|---5---6---7------------5-8-------------5-8---10-10---10---10-10---11----12-12-|
A|------------------5--8------------5--8-----------------------------------------|     
E|-3---4---5---6-6-------------6-6------------8-------8----8-------9----10-------|  

G|----------------------------------------------------------------------------|
D|---5---6---7------------5-8-------------5-8-------------5-8-------------5-8-|
A|------------------5--8------------5--8------------5--8------------5--8------|     
E|-3---4---5---6-6-------------6-6-------------6-6-------------6-6------------|  

3:20  Final    
G|-----6------6------6--8/10-8-6-----------|
D|---6------6------6-------------8---6-7-8-|
A|-8------7------8-----------------8-------|     
E|-----------------------------------------|  



************************************

| /  Slide up

************************************
Комментарии
0.0129 s, 0.73MB