Тональность0+
Шрифт0
Комментарии: 0
Автопрокрутка

The Amity Affliction - Set Me Free

Оцените подбор:
0
оценок: 0
21
Добавить в избранное

Аккорды в подборе
Скрыть
Still new to writing tabs so not sure if they're totally on point. but i tried lmao

[Solo]

D|/9-9-(9)----------------14-13------13p11-----------------14-16/18-18-14-13-----------------|
A|--------9h11-----------------------------13/16--16-14-16-------------------14-11-9-7-6-2h4b|
F|-------------11-11-11-11-----13p11---------------------------------------------------------|
C|-------------------------------------------------------------------------------------------|
G|-------------------------------------------------------------------------------------------|
C|-------------------------------------------------------------------------------------------|

D|/9-9(9)--------------------(hold 9)t14p14p13p13p14p14/16p16\14p14\13p-18-16-14-----14/16-14|
A|------9h11-9/11-9/11---------11b11--------------------------------------------14(14)-------|
F|-----------------------11-13-11b11---------------------------------------------------------|
C|-------------------11-13-------------------------------------------------------------------|
G|-------------------------------------------------------------------------------------------|
C|-------------------------------------------------------------------------------------------|


************************************
|(n)  Ghost note
| h   Hammer-on
| p   Pull-off
| t   Tapping
| b   Bend
| /   Slide up
| \   Slide down

************************************
Комментарии
0.0345 s, 0.73MB