Тональность0+
Шрифт0
Комментарии: 0
Автопрокрутка

Tabare Cardozo - Uruguayos Campeones

Оцените подбор:
0
оценок: 0
87
Добавить в избранное

Аккорды в подборе
Скрыть
D Варианты A Варианты E Варианты
Este tema es bastante facil...
si queres tocarlo con la guitarra criolla (tipo fogon)
usa los acordes normales
y si queres tocarlo con la electrica
podes usar acordes "power chord" (acordes quinta)
y suena mas rockero, como el tema original!
---------------------------------------------------------------------------
Los acordes que estan arriba de la
tablatura son los que acompañan

INTRO:

  D             A        D            A
1|-2-0-----0-2--0------|-2-0-----0-2--5---2-0-|
2|-----3-3-----------2-|-----3-3--------------|
3|-----------------2---|----------------------|
4|---------------------|----------------------|
5|---------------------|----------------------|
6|---------------------|----------------------|

D             A       D    E       A
-2-0-----0-2--0------|----------------------|
-----3-3-----------2-|-3-2-0-0-2-0----------|
-----------------2---|-------------2--------|
---------------------|----------------------|
---------------------|----------------------|
---------------------|----------------------|


(A)                                     A
Uruguayos campeones de América y del mundo!!!
                                      E
Esforzados atletas que acaban de triunfar

2||-0-2-3-3-3-2-0--------

Los clarines que dieron las dianas en colombes
                                    A
Mas allá de los andes volvieron a sonar


(A)                                A
El pueblo de Francia en las olimpiadas
                                     E
Aplaudió entusiasta  su triunfo mundial

2||-0-2-3-3-3-2-0-------

Y hoy en Sudamérica late alborozada
                                 A
Admira la gloria del ?team? oriental


(A)
En el 50, como en el 30
    A                    E
Los brasileros y los porteños

Fueron vencidos por los campeones
                            A
Por los campeones del mundo entero

INTRO

(A)                                A
Invictos en Europa Invictos en América
                                      E
Del mundo son campeones de América lo son

Los mismos que en colombes en campo del unioa
                                    A
Pasearon victoriosos el Patrio pabellón


(A)                                    A
Uruguayos campeones de América y del mundo!!!
                                      E
Esforzados atletas que acaban de triunfar

Los clarines que dieron las dianas en colombes
                                   A
Mas allá de los andes volvieron a sonar


(A)
En el 50, como en el 30
    A                    E
Los brasileros y los porteños

Fueron vencidos por los campeones
                            A
Por los campeones del mundo entero
Комментарии
0.0379 s, 0.76MB