Тональность0+
Шрифт0
Комментарии: 0
Автопрокрутка

Skin Yard - Burn A Hole

Оцените подбор:
0
оценок: 0
9
Добавить в избранное

Аккорды в подборе
Скрыть
[Intro]

G|--------------------|
D|-----6---7-----6-7--|
A|-5-5---5---5-5------|
E|--------------------|


[Verse]

G|--------------------|
D|-----6---7-----6-7--| 
A|-5-5---5---5-5------|
E|--------------------|

[Chorus]

G|--------------------|
D|-----7---8-----7-8--| 
A|-6-6---6---6-6------|
E|--------------------|

[Bridge]

G|------------------------------------------------------------------------------------|
D|------------------------------------------------------------------------------------|
A|-3-3-3-3-3-3-3-3-3-3-3-3-3-3-3-3-3-3-3-3-0-1-1-1-1-1-1-1-1-1-1-1-1-1-1-1-1-1-1-1-1-0| 
E|------------------------------------------------------------------------------------|


[other part]

G|-7-7-9-10-12--7-7-9-10-12--7-7-9-10-12--15-14-12-10------------------------|
D|---------------------------------------------------------------------------|
A|---------------------------------------------------------------------------|
E|---------------------------------------------------------------------------|
Not too sure about this part but he does do something like this, at least in this key.


Also this is my first tab, and I’m not too sure about everything so feel free to comment or add things 
that are incorrect
Комментарии
0.0105 s, 0.72MB