Тональность0+
Шрифт0
Комментарии: 0
Автопрокрутка

Sevendust - Unforgiven

Оцените подбор:
0
оценок: 0
41
Добавить в избранное

Аккорды в подборе
Скрыть
Sevendust: Unforgiven

Transcribed by: mysticguitar77

Facebook: https://www.facebook.com/MysticGuitar77
YouTube Channel: https://www.youtube.com/user/MysticGuitar77

Date last modified: May 15, 2018

Tuning: Modified Drop G# (G#,D#,G#,C#,D#,G#)

Riff 1   "What's inside of the beast..."
G#|--------------------------------------------------------|
D#|----------------------------------------------------5h6-|
C#|------------------------------------------------3/5-----|
G#|------------------------------------------3\1-0---------|
D#|--------------------------------------------------------|
G#|-0-1-0--0-0-3-0-1-0--0-0-1-0-1-0--0-0-3-0---------------|

Play Riff 1 x4   "We scream every single word..."

Riff 2   "Something to believe..." (just the chords)
G#|-----------0--------------------------|
D#|-----------0--------------------------|
C#|-5----7----7--------5----7----7/9-9-9-|
G#|-3----5----x--------3----5----5/7-7-7-|
D#|-3----5----5--------3----5----5/7-7-7-|
G#|-3----5----0--------3----5----5/7-7-7-|

Riff 3   "Just admit it..."
G#|-------------------------------------------------------------|
D#|-------------------------------------------------------------|
C#|-------------------------------------------------------------|
G#|-------------------------------------------------------------|
D#|-------------------------------------------------------------|
G#|-0-1-0--1-0-x-x-x-1-0--1-0-x-x-x-1-0--1-0-x-x-x-1-0--1-0-x-x-|

Fill 1
G#|-----------------|
D#|-----------------|
C#|-----------------|
G#|-----------------|
D#|-----------------|
G#|-0-1-0--0--1-0-1-|

Play Riff 1 x4   "From the day that you're born..."
Play Riff 2 x1   "Something to believe..."

Riff 4   "Just admit it..."
G#|-------------------------------------------------------------------|
D#|-------------------------------------------------------------------|
C#|-------------------------------------------------------------------|
G#|-------------------------------------------------------------------|
D#|-------------------------------------------------------------------|
G#|-0-1-0--1-0-3*-3*-3*-1-0--1-0-3*-3*-3*-1-0--1-0-x-x-x-1-0--1-0-x-x-|

Fill 2
G#|-----------|
D#|-----------|
C#|-----------|
G#|-----------| strum harmonics starting at the 2nd fret up to the 5th fret, end with open dive bomb
D#|-----------|
G#|-2*>5*-0\\-|

Riff 5   "Sacreligious, do you believe..." (let notes ring out)
G#|--------------------------------|
D#|--------------------------------|
C#|--------------------------------|
G#|--------------------------------| x3
D#|----------------------------10\-|
G#|-0--0-0--0-0---0---0-0--0-0-10\-|

G#|----------------------------------------|
D#|----------------------------------------|
C#|----------------------------------------|
G#|----------------------------x-x-x-x-x-x-|
D#|----------------------------x-x-x-x-x-x-|
G#|-0--0-0--0-0---0---0-0--0-0-x-x-x-x-x-x-|

G#|--------------------------------------------------------------|
D#|--------------------------------------------------------------|
C#|--------------------------------------------------------------|
G#|--------------------------------------------------------------|
D#|-0--0-0--0-0---0---0-0--0-0----0--0-0--0-0---0---0-0--0-0-10\-|
G#|-0--0-0--0-0---0---0-0--0-0----0--0-0--0-0---0---0-0--0-0-10\-|
    *  * *  * *   *   * *  * *    *  * *  * *   *   * *  * *

G#|-------------------------------------------------------------------------|
D#|-------------------------------------------------------------------------|
C#|-------------------------------------------------------------------------|
G#|-------------------------------------------x-x-x-x-x-x-------x-x-x-x-x-x-|
D#|-0--0-0--0-0---0---0-0--0-0----------------x-x-x-x-x-x-------x-x-x-x-x-x-|
G#|-0--0-0--0-0---0---0-0--0-0----0--0-0--0-0-x-x-x-x-x-x-0-1-0-x-x-x-x-x-x-|
    *  * *  * *   *   * *  * *

        "So please pull us to our knees..."
G#|---------------------------------|
D#|---------------------------------|
C#|---------------------------------|
G#|-5-5-5-5-5-5-5-5-5-5-5-5-5-5-5-5-|
D#|-5-5-5-5-5-5-5-5-5-5-5-5-5-5-5-5-|
G#|-5-5-5-5-5-5-5-5-5-5-5-5-5-5-5-5-|
    * * * * * * * *

Play Riff 2 x1   "If it's comfort that you need..."
Play Riff 4 x1   "Just admit it..."
Play Riff 2 x0.5 "If it's comfort that you need..."

Riff 6   "I pray it turns around..."
G#|--------------------------------------------------|
D#|----------------------------------------------5h6-|
C#|------------------------------------------3/5-----|
G#|------------------------------------3\1-0---------|
D#|--------------------------------------------------|
G#|-0-1-0--0-1-0-1-0--0-1-0-1-0--0-1-0---------------|

Play Riff 6 x2   "I pray it turns around..."
                  (first time through let notes ring out, 2nd time through mute them off)

Enjoy!!



Комментарии
0.0134 s, 0.74MB