Sevendust - Cheers

Тональность
-0+
Оцените подбор:
0
оценок: 0
5
Добавить в избранное

Автопрокрутка
Аккорды в подборе
Скрыть
Sevendust: Cheers

Transcribed by: mysticguitar77

Facebook: https://www.facebook.com/MysticGuitar77
YouTube Channel: https://www.youtube.com/user/MysticGuitar77

Date last modified: May 15, 2018

Tuning: Modified Drop G# (G#,D#,G#,C#,D#,G#)

Riff 1
G#|--------------------|
D#|--------------------|
C#|--------------------|
G#|--------------------|
D#|--------------------|
G#|-0--0--x-x-0--x-x-x-|

Play Riff 1 x4

Riff 2
G#|----------------------------------|
D#|----------------------------------|
C#|----------------------------------|
G#|----------------------------------|
D#|----------------------------------|
G#|-0-3*-3*-0-3*-3*-0-3*-3*-3*-3*-3*-|

Play Riff 2 x4

Riff 3   "So kill me now..."
G#|-------------------------------------------------------------------------------|
D#|-------------------------------------------------------------------------------|
C#|-11-11-11-11-11-11-11-11-11-11/19-19-19-11-11-11-11-11-11-11-11-11-11/17-17-17-|
G#|-x--x--x--x--x--x--x--x--x--x--x--x--x--x--x--x--x--x--x--x--x--x--x--x--x--x--|
D#|-9--9--9--9--9--9--9--9--9--9//17-17-17-9--9--9--9--9--9--9--9--9--9//15-15-15-|
G#|-------------------------------------------------------------------------------|

G#|----------------------------------------------------------------------------|
D#|----------------------------------------------------------------------------|
C#|-15-15-15-15-15-15-15-15-15-15-15-15-14-14-14-14-14-14-12-12-12-12-12-12/14-|
G#|-x--x--x--x--x--x--x--x--x--x--x--x--x--x--x--x--x--x--x--x--x--x--x--x--x--|
D#|-13-13-13-13-13-13-13-13-13-13-13-13-12-12-12-12-12-12-10-10-10-10-10-10/12-|
G#|----------------------------------------------------------------------------|

G#|-------------------------------------------------------------------------------|
D#|-------------------------------------------------------------------------------|
C#|-11-11-11-11-11-11-11-11-11-11/17-17-17-11-11-11-11-11-11-11-11-11-11/17-17-17-|
G#|-x--x--x--x--x--x--x--x--x--x--x--x--x--x--x--x--x--x--x--x--x--x--x--x--x--x--|
D#|-9--9--9--9--9--9--9--9--9--9//15-15-15-9--9--9--9--9--9--9--9--9--9//15-15-15-|
G#|-------------------------------------------------------------------------------|

G#|-------------------------------------------------------------------------|
D#|-------------------------------------------------------------------------|
C#|-15-15-15-15-15-15-15-15-15-15-15-15-14-14-14-14-14-14-15-14-15/17-17-17-|
G#|-x--x--x--x--x--x--x--x--x--x--x--x--x--x--x--x--x--x--x--x--x--x--x--x--|
D#|-13-13-13-13-13-13-13-13-13-13-13-13-13-13-13-13-13-13-13-13-13/15-15-15-|
G#|-------------------------------------------------------------------------|

Play Riff 2 x4   "I want something better than nothing..."

Riff 4   "Hold on the first one to let go..."
G#|--------------------------------------------------------------|
D#|--------------------------------------------------------------|
C#|------8\7------8\7------8\7------8\7--------------------------|
G#|------x-x------x-x------x-x------x-x-5--5--5--5---------------|
D#|------6\5------6\5------6\5------6\5-5--5--5--5--8--8--12--12-|
G#|-0--0-----0--0-----0--0-----0--0-----5--5--5--5--8--8--8---8--|

G#|--------------------------------------------------------0--0-|
D#|--------------------------------------------------------0--0-|
C#|------------8\7-------------8\7---5/7-------------------5--5-|
G#|------------x-x---10\7------x-x---x-x-5--5--5--5--3--3--3--3-|
D#|------------6\5-------------6\5---3/5-5--5--5--5--3--3--3--3-|
G#|-0--0--0--0-----0------0--0-----0-----5--5--5--5--3--3--3--3-|
                   *

Play Riff 2 x4
Play Riff 3 x1   "So here we are..."
Play Riff 2 x4   "I want something better than nothing..."
Play Riff 4 x2   "Hold on the first one to let go..."

Riff 5   "Such a long way home..."
G#|-------------------------------------------------------------------------------------------------|
D#|-------------------------------------------------------------------------------------------------|
C#|-5-5-5-5-5-5-5-5-5-5-5-5-7-7-7-7-7-7-7-7-7-7-7-7-8-8-8-8-8-8-8-8-8-8-8-8-8-8-8-8-8-8-8-8-8-8-8-8-|
G#|-x-x-x-x-x-x-x-x-x-x-x-x-x-x-x-x-x-x-x-x-x-x-x-x-x-x-x-x-x-x-x-x-x-x-x-x-x-x-x-x-x-x-x-x-x-x-x-x-|
D#|-3-3-3-3-3-3-3-3-3-3-3-3-5-5-5-5-5-5-5-5-5-5-5-5-6-6-6-6-6-6-6-6-6-6-6-6-6-6-6-6-6-6-6-6-6-6-6-6-|
G#|-------------------------------------------------------------------------------------------------|

G#|------------------------------------------------------------------------------------------------------|
D#|------------------------------------------------------------------------------------------------------|
C#|-5-5-5-5-5-5-5-5-5-5-5-5-7-7-7-7-7-7-7-7-7-7-7-7-8-8-8-8-8-8-8-8-8-8-8-8-8-8-8-8-8-8-8/10-10-10-10-10-|
G#|-x-x-x-x-x-x-x-x-x-x-x-x-x-x-x-x-x-x-x-x-x-x-x-x-x-x-x-x-x-x-x-x-x-x-x-x-x-x-x-x-x-x-x-x--x--x--x--x--|
D#|-3-3-3-3-3-3-3-3-3-3-3-3-5-5-5-5-5-5-5-5-5-5-5-5-6-6-6-6-6-6-6-6-6-6-6-6-6-6-6-6-6-6-6/8--8--8--8--8--|
G#|------------------------------------------------------------------------------------------------------|

Riff 6
G#|----17----17----17----20----20----20-24-------22----------13----|
D#|-21----21----21---/24----24----24-------22p21----21-15h17----17-|
C#|----------------------------------------------------------------|
G#|----------------------------------------------------------------|
D#|----------------------------------------------------------------|
G#|----------------------------------------------------------------|

Play Riff 6 x4

Fill 1
G#|-------------------------------------------|
D#|-15-13-------------------------------------|
C#|-------15--15--15--14--14--14--12-12-12-14-|
G#|-------x---x---x---x---x---x---x--x--x--x--|
D#|-------13--13--13--12--12--12--10-10-10-12-|
G#|-------------------------------------------|

Play Riff 1 x4
Play Riff 4 x2   "Hold on the first one to let go..."
Play Riff 6 x4

Ending
G#|-------13----------|
D#|-15h17----17-15-13-|
C#|-------------------|
G#|-------------------|
D#|-------------------|
G#|-------------------|

Enjoy!!

Смотрите также

Комментарии к аккордам Sevendust - Cheers

comments powered by HyperComments
0.0090 s, 0.71MB