Тональность0+
Шрифт0
Комментарии: 0
Автопрокрутка

Scotty McCreery - This Is It

Оцените подбор:
0
оценок: 0
7
Добавить в избранное

Аккорды в подборе
Скрыть
[Intro]

e|----------------------------------------------8---11---6--------------------|
B|-9---4---6------6---9---8------9---4---6------------------------------------|
G|----------------------------------------------------------------------------|
D|----------------------------------------------6---10---5--------------------|
A|-8---3---4------4---8---6------8---3---4------------------------------------|
E|----------------------------------------------------------------------------|

[Verse 1]

e|----------------------------------------------------------------------------|
B|-9---4---6------6---9---8------9---4---6------6---9---8---------------------|
G|----------------------------------------------------------------------------|
D|----------------------------------------------------------------------------|
A|-8---3---4------4---8---6------8---3---4------4---8---6---------------------|
E|----------------------------------------------------------------------------|

e|----------------------------------------------------------------------------|
B|-9---4---6------6---9---8------9---4---6------2-----------------------------|
G|----------------------------------------------------------------------------|
D|----------------------------------------------------------------------------|
A|-8---3---4------4---8---6------8---3---4------1-----------------------------|
E|----------------------------------------------------------------------------|


[Chorus]

The chord progression is from rwilliams916 chord version of this song.
Its the power chords of the open ones they have just moved up one fret because
they are using a capo but this version does not. 

e|-----6------------------6--------------6------------------6-----------6-----|
B|-4---8-------6------4---8---6------4---8-------6------4---8---6-------8---6-|
G|-5---8---1---6------5---8---6------5---8---1---6------5---8---6---1---8---6-|
D|-6---8---3---6------6---8---6------6---8---3---6------6---8---6---3---8---6-|
A|-6---6---3---4------6---6---4------6---6---3---4------6---6---4---3---6---4-|
E|-4-------1----------4--------------4-------1----------4-----------1---------|

[Betwen Chorus and Verse]

e|----------------------------------------------------------------------------|
B|-9---4---6------6---9---8---------------------------------------------------|
G|----------------------------------------------------------------------------|
D|----------------------------------------------------------------------------|
A|-8---3---4------4---8---6---------------------------------------------------|
E|----------------------------------------------------------------------------|

[Verse 2]

e|----------------------------------------------------------------------------|
B|-9---4---6------6---9---8------9---4---6------6---9---8---------------------|
G|----------------------------------------------------------------------------|
D|----------------------------------------------------------------------------|
A|-8---3---4------4---8---6------8---3---4------4---8---6---------------------|
E|----------------------------------------------------------------------------|

e|----------------------------------------------------------------------------|
B|-9---4---6------6---9---8------9---4---6------2-----------------------------|
G|----------------------------------------------------------------------------|
D|----------------------------------------------------------------------------|
A|-8---3---4------4---8---6------8---3---4------1-----------------------------|
E|----------------------------------------------------------------------------|

[Chorus]

e|-----6------------------6--------------6------------------6-----------------|
B|-4---8-------6------4---8---6------4---8-------6------4---8---6-------------|
G|-5---8---1---6------5---8---6------5---8---1---6------5---8---6-------------|
D|-6---8---3---6------6---8---6------6---8---3---6------6---8---6-------------|
A|-6---6---3---4------6---6---4------6---6---3---4------6---6---4-------------|
E|-4-------1----------4--------------4-------1----------4---------------------|

e|-----6-----------6----------------------------------------------------------|
B|-4---8---6-------8---6------------------------------------------------------|
G|-5---8---6---1---8---6------------------------------------------------------|
D|-6---8---6---3---8---6------------------------------------------------------|
A|-6---6---4---3---6---4------------------------------------------------------|
E|-4-----------1--------------------------------------------------------------|

[Solo]

e|----------------------------------------------------------------------------|
B|-13/16---16b18---13---------13---13-----------------------13--13------------|
G|----------------------13h15-----------15--13--12--13--15--------------------|
D|----------------------------------------------------------------------------|
A|----------------------------------------------------------------------------|
E|----------------------------------------------------------------------------|

e|----------------------------------------------------------------------------|
B|-13/16------13b16------16b18------------------------------------------------|
G|----------------------------------------------------------------------------|
D|----------------------------------------------------------------------------|
A|----------------------------------------------------------------------------|
E|----------------------------------------------------------------------------|


[Chorus]

e|-----6------------------6--------------6------------------6-----------6-----|
B|-4---8-------6------4---8---6------4---8-------6----------8---6-------8---6-|
G|-5---8---1---6------5---8---6------5---8---1---6------1---8---6---1---8---6-|
D|-6---8---3---6------6---8---6------6---8---3---6------3---8---6---3---8---6-|
A|-6---6---3---4------6---6---4------6---6---3---4------3---6---4---3---6---4-|
E|-4-------1----------4--------------4-------1----------1-----------1---------|

e|-----6----------------------------------------------------------------------|
B|-4---8---6------------------------------------------------------------------|
G|-5---8---6------------------------------------------------------------------|
D|-6---8---6------------------------------------------------------------------|
A|-6---6---4------------------------------------------------------------------|
E|-4--------------------------------------------------------------------------|


[Outro]

e|----------------------------------------------8---11---6--------------------|
B|-9---4---6------6---9---8------9---4---6------------------------------------|
G|----------------------------------------------------------------------------|
D|----------------------------------------------6---10---5--------------------|
A|-8---3---4------4---8---6------8---3---4------------------------------------|
E|----------------------------------------------------------------------------|

*******************************************************************************

/ Slide
b Bend 
h Hammer On

*******************************************************************************
Комментарии
0.0380 s, 0.74MB