Тональность0+
Шрифт0
Комментарии: 0
Автопрокрутка

Rod Stewart - Rest Of My Life

Оцените подбор:
0
оценок: 0
6
Добавить в избранное

Аккорды в подборе
Скрыть
Rest Of My Life
Track taken from Rod Stewart’s 2018 studio album Blood Red Roses.
Tab by bass50611. Not exact as original bass line, my interpretation.
My thanks to Jack Delonge for the chord sequence. 

Intro:                              (Play This Bit x2)
G|---------------------------------------------------|
D|---------------------------------------------------|
A|---------------------------7-7---7-7----9-9---9-9--|
E|-7--7---6--6---4--4--4--4-----7-----7------9-----9-|

G|-----------------------|
D|-6--6--6--6--6--6--6---|
A|---------------------6-|
E|-----------------------|

Verse 1:
G|------------------------------------------------------------------------|
D|------------------------------------------------------------------------|
A|-------------------------------------------6--5--4--4--4--4--4--4--4--3-|
E|-4--4--4--4--4--4--4--4---4--4--4--4--4--4------------------------------|

G|-------------------------------------------------------------------|
D|-------------------------------------------------------------------|
A|-1--1--1--1---6--6--6--6-------------------------------------------|
E|-------------------------4--4--4--4--4--4--4--4---4--4--4--4--4--4-|

G|------------------------------------------------------|
D|------------------------------------------------------|
A|-6--5--4--4--4--4--4--4--4--3--1--1--3--3--4--4--6--6-|
E|------------------------------------------------------|

Chorus:                             (Play This Bit x2)
G|---------------------------------------------------|
D|---------------------------------------------------|
A|---------------------------7-7---7-7----9-9---9-9--|
E|-7--7---6--6---4--4--4--4-----7-----7------9-----9-|

G|---------------------------------------------------|
D|---------------------------------------------------|
A|-4-4---4-4----6-6---6-6----7-7---7-7----9-9---9-9--|
E|----4-----4------6-----6------7-----7------9-----9-|

G|---------------------------------------------------|
D|---------------------------------------------------|
A|---------------------------7-7---7-7----9-9---9-9--|
E|-7--7---6--6---4--4--4--4-----7-----7------9-----9-|

Interlude:
G|-------------------------------------------------|
D|-6--6--6--6--6--6--6--6---6--6--6--6--6--6--6--6-|
A|-------------------------------------------------|
E|-------------------------------------------------|

Verse 2:
G|------------------------------------------------------------------------|
D|------------------------------------------------------------------------|
A|-------------------------------------------6--5--4--4--4--4--4--4--4--3-|
E|-4--4--4--4--4--4--4--4---4--4--4--4--4--4------------------------------|

G|-------------------------------------------------------------------|
D|-------------------------------------------------------------------|
A|-1--1--1--1---6--6--6--6-------------------------------------------|
E|-------------------------4--4--4--4--4--4--4--4---4--4--4--4--4--4-|

G|------------------------------------------------------|
D|------------------------------------------------------|
A|-6--5--4--4--4--4--4--4--4--3--1--1--3--3--4--4--6--6-|
E|------------------------------------------------------|

Chorus:                             (Play This Bit x2)
G|---------------------------------------------------|
D|---------------------------------------------------|
A|---------------------------7-7---7-7----9-9---9-9--|
E|-7--7---6--6---4--4--4--4-----7-----7------9-----9-|

G|---------------------------------------------------|
D|---------------------------------------------------|
A|-4-4---4-4----6-6---6-6----7-7---7-7----9-9---9-9--|
E|----4-----4------6-----6------7-----7------9-----9-|

G|---------------------------------------------------|
D|---------------------------------------------------|
A|---------------------------7-7---7-7----9-9---9-9--|
E|-7--7---6--6---4--4--4--4-----7-----7------9-----9-|

Bridge:
G|----------------------------------------------------------|
D|----------------------------------------------------------|
A|-7----6--7--7---7----6--7--7---7----6--7--7---7--7---9--9-|
E|--9-7-----7--7---9-7-----7--7---9-7-----7--7--------------|

G|----------------|
D|----------------|
A|-11--11--11--11-|
E|----------------|

Interlude:                             (Play This Bit x2)
G|---------------------------------------------------|
D|---------------------------------------------------|
A|---------------------------7-7---7-7----9-9---9-9--|
E|-7--7---6--6---4--4--4--4-----7-----7------9-----9-|

Bridge:
G|----------------------------------------------------------|
D|----------------------------------------------------------|
A|-7----6--7--7---7----6--7--7---7----6--7--7---7--7---9--9-|
E|--9-7-----7--7---9-7-----7--7---9-7-----7--7--------------|

G|----------------|
D|----------------|
A|-11--11--11--11-|
E|----------------|

Chorus:            (Drum Break)             (Play This Bit x2)
G|-----------------------------------------------------|
D|-----------------------------------------------------|
A|-----------------------------7-7---7-7----9-9---9-9--|
E|-7--7---6--6---4----------------7-----7------9-----9-|

G|---------------------------------------------------|
D|---------------------------------------------------|
A|-4-4---4-4----6-6---6-6----7-7---7-7----9-9---9-9--|
E|----4-----4------6-----6------7-----7------9-----9-|

Outro:  (Repeat Outro To Fade/End)
G|---------------------------------------------------|
D|---------------------------------------------------|
A|---------------------------7-7---7-7----9-9---9-9--|
E|-7--7---6--6---4--4--4--4-----7-----7------9-----9-|

Комментарии
0.0130 s, 0.73MB