Тональность0+
Шрифт0
Комментарии: 0
Автопрокрутка

Песни из кино и мультфильмов - Max Payne (Main Theme), аккорды

Оцените подбор:
0
оценок: 0
318
Добавить в избранное

Аккорды в подборе (аппликатуры)
Скрыть
E|-----------------3--8--3--6--3-----------
B|-----------4--6-----------3--3--4--------
G|--4/-5--5-----------------------5--3/4---
D|-----------------------------------------
A|--2/-3--------------3-----------3--1/2---
E|-----------------------------------------

E|---------------------------
B|-------3-----3--4----------
G|--1p0--0--0--0--0--4--4h5--
D|---------------------------
A|-------2--------6--3-------
E|-------3-------------------

E|-----------------------------------------------------------------------------------------
B|--1-----------3--0-----4--1-----------3--0-----------1-----------3--0-----------4--3-----
G|--1-----0--1-----0--0--0--1-----0--1-----0--0--------1-----0--1-----0--0--------0--0-----
D|--3--3--------------------3--3-----------------0--1--3--3-----------------0--------------
A|--3--------------2--------3--------------------------3-----------------------2-----------
E|--1--------------3--------1--------------3-----------1--------------3--------------------

E|--1--------------------------
B|--1-----------3--1--0-----0--
G|--1-----0--1-----0--0--2--0--
D|--3--3-----------------------
A|--3--------------------------
E|--1--------------3-----------

E|-----4p3-------------4p3-------------4p3---------------------4p3----------
B|-------------3h4-------------3h4----------4--3h4-----3h4-------------4p3--
G|--5-------5-------5-------5-------4---------------5-------4-------5-------
D|--------------------------------------------------------------------------
A|--3---------------3---------------2-----------------------2---------------
E|--------------------------------------------------------------------------
Видео песни Песни из кино и мультфильмов - Max Payne (Main Theme)
Комментарии
0.0469 s, 0.73MB