Тональность0+
Шрифт0
Комментарии: 0
Автопрокрутка

Oliver Houston - Milk Door

Оцените подбор:
0
оценок: 0
12
Добавить в избранное

Аккорды в подборе
Скрыть
Oliver Houston - Milk Door

Tuning: DAEAC#E
Capo: 2

Frets relative to capo

Timestamps follow video link.
https://www.youtube.com/watch?v=qCqCMVmdwEY


[Intro / Verse pt.1] 0:00

e |----------------------------------------------------------------------------|
C#|----------------------------------------------------------------------------|
A |----------------------------------------------------------------------------|
E |-7-7-7-9-9---x-9-9---x-9-9---x-9-7-7-7-9/12---x-4/5---x-4/5---x-5-5-5-5-4-4-|
A |-x-x-x-x-x---x-x-x---x-x-x---x-x-x-x-x-x------x-x-----x-x-----x-0-x-x-x-x-x-|
D |-6-6-6-7-7---x-7-7---x-7-7---x-7-6-6-6-7/11---x-2/4---x-2/4---x-0-4-4-4-2-2-|
									 	 Repeat these two bars 3 times.
e |----------------------------------------------------------------------------|
C#|----------------------------------------------------------------------------|
A |----------------------------------------------------------------------------|
E |-x-4-4---x-4-4---x-7-7-9-7-5-2---x-2-2---x-2-2---x-2------------------------|
A |-x-x-x---x-x-x---x-x-x-x-x-x-0---x-0-0---x-0-0---x-0------------------------|
D |-x-2-2---x-2-2---x-7-7-7-7-7-0---x-0-0---x-0-0---x-0------------------------|

e |-----------------------------0--0--0--0--0--0--0--0-------------------------|
C#|-----------------------------0--0--0--0--0--0--0--0-------------------------|
A |-----------------------------0--0--0--0--0--0--0--0-------------------------| The last time through
E |-x-4-4---x-4-4---x-7-7-9-7-5-2--2-/12-12-12-12-12-12------------------------| on the 2nd bar, your chords
A |-x-x-x---x-x-x---x-x-x-x-x-x-0--0--0--0--0--0--0--0-------------------------| will become open at the end.
D |-x-2-2---x-2-2---x-7-7-7-7-7-0--0--0--0--0--0--0--0-------------------------|

e |-0--0--0-0-----0--0--0-0-----0--0--0-0-----0--0--0-0-----12*----------------|
C#|-0--0--0-0-----0--0--0-0-----0--0--0-0-----0--0--0-0-----12*----------------|
A |-7--7--7-7-----7--7--7-7-----5--5--5-5-----5--5--5-5-----12*----------------|
E |-0--0--0-0-----0--0--0-0-----0--0--0-0-----0--0--0-0-----12*----------------|
A |-0--0--0-0-----0--0--0-0-----0--0--0-0-----0--0--0-0-----12*----------------|
D |-7--7--7-7-----7--7--7-7-----5--5--5-5-----5--5--5-5-----12*----------------|
		"I move slowly (I know)"

[Verse pt.2] 0:50

e |----------------------------------------------------------------------------|
C#|-----------------------------------0-----0----------------------------------|
A |-2-2p0---2-2p0---2-2p0---2-2p0-2/4----0------0------------------------------|
E |--------------------------------------4------0------------2p0---------------|
A |--------------------------------------0------0------------------------------|
D |----------------------------------------------------------------------------|

e |-12-------------------------------------------------------------------------|
C#|----12------7h8p7-----------------------------------------------------------|
A |------------------7/12------------------------------------------------------|
E |----------------------------------------------------------------------------| x14
A |----------------------------------------------------------------------------|
D |----------------------------------------------------------------------------|

e |-0-----0-----0-----0-----0-----0-----0-----0-----0-----0-----0-----0--------|
C#|-12----12----12----12----12----12----12----12----12----12----12----12-------|
A |-12----12----12----12----12----12----12----12----12----12----12----12-------|
E |-0-----0-----0-----0-----0-----0-----0-----0-----0-----0-----0-----0--------|
A |-0-----0-----0-----0-----0-----0-----0-----0-----0-----0-----0-----0--------| 
D |-0-----0-----0-----0-----0-----0-----0-----0-----0-----0-----0-----0--------|
		"... or the years I spent doing nothing"

[Verse pt.3] 2:10

This is just the same riff as the intro.

e |----------------------------------------------------------------------------|
C#|----------------------------------------------------------------------------|
A |----------------------------------------------------------------------------|
E |-7-7-7-9-9---x-9-9---x-9-9---x-9-7-7-7-9/12---x-4/5---x-4/5---x-5-5-5-5-4-4-| 
A |-x-x-x-x-x---x-x-x---x-x-x---x-x-x-x-x-x------x-x-----x-x-----x-0-x-x-x-x-x-|
D |-6-6-6-7-7---x-7-7---x-7-7---x-7-6-6-6-7/11---x-2/4---x-2/4---x-0-4-4-4-2-2-|
									 	 Repeat these two bars 2 times.
e |----------------------------------------------------------------------------|
C#|----------------------------------------------------------------------------|
A |----------------------------------------------------------------------------|
E |-x-4-4---x-4-4---x-7-7-9-7-5-2---x-2-2---x-2-2---x-7------------------------|
A |-x-x-x---x-x-x---x-x-x-x-x-x-0---x-0-0---x-0-0---x-x------------------------|
D |-x-2-2---x-2-2---x-7-7-7-7-7-0---x-0-0---x-0-0---x-6------------------------|

e |-----------------------------0--0--0--0--0--0--0--0-------------------------|
C#|-----------------------------0--0--0--0--0--0--0--0-------------------------|
A |-----------------------------0--0--0--0--0--0--0--0-------------------------| The last time through
E |-x-4-4---x-4-4---x-7-7-9-7-5-2--2-/12-12-12-12-12-12------------------------| on the 2nd bar, you chords
A |-x-x-x---x-x-x---x-x-x-x-x-x-0--0--0--0--0--0--0--0-------------------------| will become open at the end.
D |-x-2-2---x-2-2---x-7-7-7-7-7-0--0--0--0--0--0--0--0-------------------------|

e |-0--0--0-0-----0--0--0-0-----0--0--0-0-----0--0--0-0------------------------|
C#|-0--0--0-0-----0--0--0-0-----0--0--0-0-----0--0--0-0------------------------|
A |-7--7--7-7-----7--7--7-7-----5--5--5-5-----5--5--5-5------------------------|
E |-0--0--0-0-----0--0--0-0-----0--0--0-0-----0--0--0-0------------------------| x2
A |-0--0--0-0-----0--0--0-0-----0--0--0-0-----0--0--0-0------------------------|
D |-7--7--7-7-----7--7--7-7-----5--5--5-5-----5--5--5-5------------------------|
		"I move slowly (I know)"

[Chorus / Outro] 2:53

e |----------------------------------------------------------------------------|
C#|-3h5p3---------0-------0----------------------------------------------------|
A |-------0----2-------0----------0--------------------------------------------|
E |----------0-------0-------0-4----p0-----------------------------------------| x4
A |----------------------------------------------------------------------------|
D |----------------------------------------------------------------------------|
  On the last time you play this part above, you will end on the 4th fret.

e |------------12------------------------------------12------------------------|
C#|-7h8p7---------12-----------12---------7h8p7---------12--12-12/10--12-12\10-|
A |-------7/12-----------12-------12------------7/12---------------------------|
E |-------------------12----12-------12----------------------------------------|
A |----------------------------------------------------------------------------|
D |----------------------------------------------------------------------------|

e |------------12------------------------------------12------------------------|
C#|-7h8p7---------12-----------12---------7h8p7---------12-----------12--------|
A |-------7/12-----------12-------12------------7/12-----------12--------------|
E |-------------------12----12-------12---------------------12----12-----------|
A |----------------------------------------------------------------------------|
D |----------------------------------------------------------------------------|

END


***********************************

x = Dead note
/ = Slide up
\ = Slide down
h = Hammer on
p = Pull off
* = Harmonic note

***********************************
Комментарии
0.0127 s, 0.73MB