Тональность0+
Шрифт0
Комментарии: 0
Автопрокрутка

Neomi - Skipping Stone, аккорды

    	    	Вступление

Pattern for Intro, Outro, Verse and Chorus
 Bb
e|----------------1-----------------1-----------------1-----------------1--|
B|----3-----1-----------3-----1-----------3-----1-----------3-----1--------|
G|-------3-----3-----------3-----3-----------3-----3-----------3-----3-----|
D|-------------------------------------------------------------------------|
A|-1----------------(1)---------------(1)---------------(1)----------------|
E|-------------------------------------------------------------------------|

 Dm
e|----------------1-----------------1-----------------1-----------------1--|
B|----3-----1-----------3-----1-----------3-----1-----------3-----1--------|
G|-------2-----2-----------2-----2-----------2-----2-----------2-----2-----|
D|-0----------------(0)---------------(0)---------------(0)----------------|
A|-------------------------------------------------------------------------|
E|-------------------------------------------------------------------------|

[Intro]
Bb   Dm

[Verse]
    Bb                         Dm
I remember myself going to your  house
       Bb                               Dm
How we painted the walls as if they were ours

[Pre-Chorus]
    Bbadd2
Its on me
Am7               Gm7
   How to carry myself
    Bbadd2
Its on me
Am7           Gm7
   To carry myself

[Chorus]
              Bb
But how I can be your love
                  Dm
If you dont wanna hold me
          Bb
How can I be your love
                  Dm
If you dont wanna see me
          Eb
How can I be your love
                  Dm
If you dont wanna hold me

[Verse]
   Bb                      Dm
Is it just me doubting the unknown
Bb                              Dm
Great minds or great hearts, great souls

[Pre-Chorus]
    Bbadd2
Its on me
Am7               Gm7
   How to carry myself
    Bbadd2
Its on me
Am7           Gm7
   To carry myself

[Chorus]
              Bb
But how I can be your love
                  Dm
If you dont wanna hold me
          Bb
How can I be your love
                  Dm
If you dont wanna see me
          Eb
How can I be your love
                  Dm
If you dont wanna hold me
          Eb
How can I be your love
                  Dm
If you dont wanna hold me

[Outro]
              Bb
Maybe im your skipping stone
                       Dm
Maybe im your skipping stone
               Bb
Maybe im your skipping stone
                     Dm
Maybe im your skipping stone		
    

Аккорды в подборе (аппликатуры)
Скрыть
Bb Варианты Dm Варианты Bbadd2 Варианты Am7 Варианты Gm7 Варианты Eb Варианты
Оцените подбор:
0
оценок: 0
23
0
Каким боем играть песню Neomi - Skipping Stone? Голосуй!
Виды гитарного боя и как их играть
Видео песни Neomi - Skipping Stone
Комментарии
0.0730 s, 3.91MB, p