Тональность0+
Шрифт0
Комментарии: 0
Автопрокрутка

Mustard Service - Homie, аккорды

Оцените подбор:
0
оценок: 0
8
Добавить в избранное

Аккорды в подборе
Скрыть
D Варианты Bm Варианты Em Варианты A Варианты F#7 Варианты G Варианты Bb Варианты D/Eb Варианты F#m Варианты F# Варианты
[Intro]
D Bm
Em A F#7 Bm
G Bb D


[Verse 1]
D                                Bm
Homie, sit right back and just relax
                 Em         A
I know you got a lot to do
          F#7                Bm
I'll take care of it all for you


[Refrain]
G                 Bb               D
Just sit back and smoke your cigarette


[Verse 2]
D                               Bm
Homie, sit right back; I got my shit
               Em             A
I got a little time for you
          F#7     Bm
I hope you got it too


[Refrain]
G                 Bb               D      D/Eb
Just sit back and smoke your cigarette


[Chorus]
Em            A
Lift up your feet
                D                 Bm
You look like you could use some sleep
             Em         F#m              Bm
Shit’s been getting you down for way too long
Em           A
Don't lift a finger
       D            Bm
Feel free to linger
          Em      F#m          A
I'll take care of every little thing


[Verse 3]
D                                Bm
Homie, sit right back and just relax
                  Em             A
You look a little sore today
                 F#m      Bm
You look a little pale today


[Refrain]
G                 Bb               D
Just sit back and smoke your cigarette


[Reprise]
Em                A
You look a little sore today
F#                Bm
You look a little pale today


[Refrain]
G                 Bb               D       D/Eb
Just sit back and smoke your cigarette


[Chorus]
Em            A
Lift up your feet
                D                 Bm
You look like you could use some sleep
             Em         F#m              Bm
Shit’s been getting you down for way too long
Em           A
Don't lift a finger
       D            Bm
Feel free to linger
          Em      F#m          A
I'll take care of every little thing


[Outro]
   D                Bm           Em         A           F#7            Bm
e|--10-9-7-9-7-5-2~~~-------------5--3-------------------3--2----------------|
B|------------------------------------------7/2-----------------------5/2----|
G|---------------------------------------------------------------------------|
D|---------------------------------------------------------------------------|
A|---------------------------------------------------------------------------|
E|---------------------------------------------------------------------------|

  G          Bb         D D D D D D D
e|---------------------------------------------------------------------------|
B|-7--5-2--------------------------------------------------------------------|
G|----------3~---------------------------------------------------------------|
D|---------------------------------------------------------------------------|
A|---------------------------------------------------------------------------|
E|---------------------------------------------------------------------------|
Комментарии
0.0414 s, 0.82MB