Тональность0+
Шрифт0
Комментарии: 0
Автопрокрутка

Mother Mother - Forgotten Souls, аккорды

Оцените подбор:
0
оценок: 0
16
Добавить в избранное

Аккорды в подборе (аппликатуры)
Скрыть
C Варианты Am Варианты F Варианты G Варианты A# Варианты Gm Варианты
[Intro]

C
(The garden grows)
C      Am
(In frozen rai-rai-rai-rai)


[Verse 1]
C
I lie awake
C                           Am
I lie awake and wonder why I feel this way
Am
(So far away)
C
Am I to blame?
C                                 Am
I should've spoken up but I just shied away
Am
I ran away
   F
Ashamed


[Chorus]
F         G               C
Forgotten souls, we'll be okay
C           Am             F
The garden grows in frozen rain
F          G              C
Forgotten souls, we'll be okay
C
(Garden gr-gr-gr-gr-)


[Verse 2]
C
I wash my face (I wash my face)
C
For half a day but all the dirt
   Am
It loves to stay
Am
Nobody can see me
C
Up here again (up here again)
C
I'm looking down, I want to jump
      Am
But I back away (I back away)
Am
I've got another day
   F
In me


[Chorus]
F          G               C
Forgotten souls, we'll be okay
            Am              F
The garden grows in frozen rain
G                              C      Am
Forgotten souls, we can't lose faith
          C       Am
Have some faith
               F
Whoa, oh, oh, oh-oh


[Bridge]
F         G              C
Forgotten souls we'll be okay

(Rock me, bro)



[Solo]
Solo plays with glissando(marked "+") and legato(marked ">")
           A#                           Gm
e|--------5+6-----------5>6>5-----3>5>3-----1>1-3----------------------|
B|-----3-------3--------------------------------------1>3+6-3----------|
G|---3-----------------------------------------------------------------|
D|---------------------------------------------------------------------|
A|---------------------------------------------------------------------|
E|---------------------------------------------------------------------|


           A#                           Gm
e|--------5+6-----------5>6>5-----3>5>3-----1>1-3----------------------|
B|-----3-------3--------------------------------------1--0-------------|
G|---3------------------------------------------------------0----------|
D|---------------------------------------------------------------------|
A|---------------------------------------------------------------------|
E|---------------------------------------------------------------------|
   See another day


[Chorus]

F          G               C
Forgotten souls, we'll be okay
            Am              F
The garden grows in frozen rain
G                              C      Am
Forgotten souls, we can't lose faith
Am         C
Have some faith

Am    G       F
Whoa, oh, oh, oh-oh
F           G              C
Forgotten souls, we'll be okay
Видео песни Mother Mother - Forgotten Souls
Комментарии
0.0435 s, 0.78MB