Тональность0+
Шрифт0
Комментарии: 0
Автопрокрутка

Moondog - Pastoral

Оцените подбор:
0
оценок: 0
15
Добавить в избранное

Аккорды в подборе
Скрыть
Moondog - Pastoral

https://www.youtube.com/watch?v=TMyjoYGGlNw

https://www.discogs.com/Moondog-Moondog-2/master/337829

Tempo = between 139-142


 [Intro] ( harp - guitar ) starts at 00:15

e|----------------|----------------|----------------|----------------|
B|--------8-------|--------8-------|----------------|----------------|
G|----9-------9---|----9-------9---|--------10--9---|7---------------|  
D|----------------|----------------|----10----------|----------------| 
A|----------------|----------------|----------------|----------------|
E|----------------|----------------|----------------|----------------|


e|----------------|----------------|----------------|----------------|
B|--------8-------|--8-----8-------|----------------|----------------|
G|----9-------9---|----9-------9---|--------10--9---|7---------------|  
D|----------------|----------------|----10----------|----------------| 
A|----------------|----------------|----------------|----------------|
E|----------------|----------------|----------------|----------------|


e|----8-----------|----------------|----8-----------|----------------|
B|--------8-------|10--8-----------|--------8-------|10--8-----------|
G|------------9---|--------7-------|------------9---|--------7-------|  
D|----------------|----------------|----------------|----------------|             
A|----------------|----------------|----------------|----------------|
E|----------------|----------------|----------------|----------------|


e|----------------|----------------|----------------|----------------|
B|----------------|----8-----------|----5-------5---|----8-----------|
G|----9-------9---|----7-----------|----5-------5---|----7-----------|  
D|----------------|----------------|----------------|----------------| 
A|----------------|----------------|----------------|----------------|
E|----------------|----------------|----------------|----------------|


e|----------------|----------------|----------------|----------------|
B|------------5---|8---6---5-------|6---5-----------|5---------------|
G|----5---7-------|------------7---|--------7---5---|----7---5---4---|  
D|----------------|----------------|----------------|----------------| 
A|----------------|----------------|----------------|----------------|
E|----------------|----------------|----------------|----------------|


e|------------8---|12--15------12--|17--15--13--12--|----15----------|
B|--------8-------|----------------|----------------|15--------------|
G|5---9-----------|----------------|----------------|----------------|  
D|----------------|----------------|----------------|----------------| 
A|----------------|----------------|----------------|----------------|
E|----------------|----------------|----------------|----------------|
Комментарии
0.0480 s, 0.73MB