Тональность0+
Шрифт0
Комментарии: 0
Автопрокрутка

Misc Cartoons - Spongebob Squarepants - Ripped Pants

Оцените подбор:
0
оценок: 0
13
Добавить в избранное

Аккорды в подборе
Скрыть
[Intro]0:00

G|----------------------------------------------|
D|----------------------------------------------|
A|--3-----------5-----------------------5-------|
E|--------5-----------3-----0-----5-----------3-|

[Chorus]0:16

G|---------------------------------------------------------------------------------------|
D|---------------------------------------------------------------------------------2-----|
A|--3---x-3-----3----------------------5---x-5-----5----------------------------------2--|
E|-----------3--------5--x-5--0--5--------------5--------3---x-0--3--1--0---x--0---------|

G|----------------------------------------|
D|----------------------------------------|
A|--------------------5---x-5-----5-----3-|
E|--5---x-5--0--5--------------5----------|


[Verse 1]

G|---------------------------------------------------------------------------|
D|--2---x-2-----2-----------------------------------------3---x-3-----3------|
A|-----------2--------------------------5---x-5-----5--------------3---------|
E|--------------------5---x-5--0--5--------------5---------------------------|

G|---------------------------------------------------------------------------|
D|--2---x-2-----2-----------------------------------------5---x-5-----5------|
A|-----------2--------------------------5---x-5-----5--------------5---------|
E|--------------------5---x-5--0--5--------------5---------------------------|


[Chorus]

G|---------------------------------------------------------------------------------------|
D|---------------------------------------------------------------------------------2-----|
A|--3---x-3-----3----------------------5---x-5-----5----------------------------------2--|
E|-----------3--------5--x-5--0--5--------------5--------3---x-0--3--1--0---x--0---------|

G|----------------------------------|
D|----------------------------------|
A|--------------------5---x-5-----5-|
E|--5---x-5--0--5--------------5----|


[Outro]1:04

G|---------------------------------------------------------------------------|
D|---------------------------------------------------------------------------|
A|--------------------------------------5--5--5-----3--3--3--3--3--3--3--3---|
E|--3--3--3--3--5--5--5--5--7--7--7--7-----------5---------------------------|

G|-----------------|
D|-----------------|
A|--3-----3-----3--|
E|-----3-----3-----|


************************************
| x   Dead note
************************************
Комментарии
0.0364 s, 0.74MB