Mano Negra - Soledad

Тональность
-0+
Оцените подбор:
0
оценок: 0
6
Добавить в избранное

Автопрокрутка
Аккорды в подборе
Скрыть
[Intro]

G|------------|------------|------------|------------|
D|------------|------------|------------|------------|
A|-3-----1--2-|-3-----1--2-|-3-----1--2-|-6----6-5---|
E|----3-------|----3-------|----3-------|----6-----6-|


[Verse]

"Nobody's coming..."
G|------------|------------|------------|------------|
D|------------|------------|------------|------------|
A|-3-----6----|-3-----6----|-3-----6----|-6----6-5---|
E|----3-----6-|----3-----6-|----3-----6-|----6-----6-|

G|------------|------------|------------|------------|
D|------------|------------|------------|------------|
A|-3-----6----|-3-----6----|-3-----6----|-6----6-5---|
E|----3-----6-|----3-----6-|----3-----6-|----6-----6-|


[Chorus]

"Soledad..."
G|-----------------|-----------------|------------|-----------------|------------|
D|---------1-1-----|-----------3-3-3-|------------|-----------3-3-3-|------------|
A|-3-3---3-----3-1-|-3-----3-1-------|----2--3----|-3-----3-1-------|----2--3----|
E|-----3-----------|-----------------|-3--------3-|-----------------|-3--------3-|


[Verse]

0:30
G|------------|------------|------------|------------|
D|------------|------------|------------|------------|
A|-3-----6----|-3-----6----|-3-----6----|-6----6-5---|
E|----3-----6-|----3-----6-|----3-----6-|----6-----6-|


[Chorus]

0:37
G|-----------------|-----------------|------------|-----------------|------------|
D|---------1-1-----|-----------3-3-3-|------------|-----------3-3-3-|------------|
A|-3-3---3-----3-1-|-3-----3-1-------|----2--3----|-3-----3-1-------|----2--3----|
E|-----3-----------|-----------------|-3--------3-|-----------------|-3--------3-|


[Verse]

0:46
G|------------|------------|------------|------------|
D|------------|------------|------------|------------|
A|-3-----1--2-|-3-----1--2-|-3-----1--2-|-6----6-5---|
E|----3-------|----3-------|----3-------|----6-----6-|

G|------------|------------|------------|------------|
D|------------|------------|------------|------------|
A|-3-----1--2-|-3-----1--2-|-3-----1--2-|-6----6-5---|
E|----3-------|----3-------|----3-------|----6-----6-|

"Stinkin with your..."
G|------------|------------|------------|------------|
D|------------|------------|------------|------------|
A|-3-----6----|-3-----6----|-3-----6----|-6----6-5---|
E|----3-----6-|----3-----6-|----3-----6-|----6-----6-|

G|------------|------------|------------|------------|
D|------------|------------|------------|------------|
A|-3-----6----|-3-----6----|-3-----6----|-6----6-5---|
E|----3-----6-|----3-----6-|----3-----6-|----6-----6-|


[Chorus]

"Soledad..."
G|-----------------|-----------------|------------|-----------------|------------|
D|---------1-1-----|-----------3-3-3-|------------|-----------3-3-3-|------------|
A|-3-3---3-----3-1-|-3-----3-1-------|----2--3----|-3-----3-1-------|----2--3----|
E|-----3-----------|-----------------|-3--------3-|-----------------|-3--------3-|


[Post-Chorus]

1:23
G|------------|------------|------------|------------|
D|------------|------------|------------|------------|
A|-3-----1--2-|-3-----1--2-|-3-----1--2-|-6----6-5---|
E|----3-------|----3-------|----3-------|----6-----6-|


[Bridge]

G|-----------|-----------|-----------|-----------|-----------|-------|
D|----5-4--5-|----5-4--5-|-----------|-----------|-5---------|-------|
A|-3---------|-3---------|-3-----3---|-3-----5---|----5--3---|-3-----|
E|-----------|-----------|----3-----3|----3-----3|----------3|----3--|

G|-----------|-----------|-----------|-----------|
D|----5-4--5-|----5-4--5-|----5-4--5-|----5-4--5-|
A|-3---------|-3---------|-3---------|-3---------|
E|-----------|-----------|-----------|-----------|

G|-----------|-----------|-----------|-----------|
D|----5-4--5-|----5-4--5-|----5-4--5-|----5-4--5-|
A|-3---------|-3---------|-3---------|-3---------|
E|-----------|-----------|-----------|-----------|


[Outro]

"Always the same old show..."
G|-----------------|-----------------|-----------------|-----------------|
D|---------1-1-----|---------1-1-----|---------1-1-----|-1-1-1-1-----1-0-|
A|-3-3---3-----3-1-|-3-3---3-----3-1-|-3-3---3-----3-1-|---------1-1-----|
E|-----3-----------|-----3-----------|-----3-----------|-----------------|

2:01
G|-----------------|-----------------|-----------------|-----------------|
D|---------1-1-----|---------1-1-----|---------1-1-----|-1-1-1-1-----1-0-|
A|-3-3---3-----3-1-|-3-3---3-----3-1-|-3-3---3-----3-1-|---------1-1-----|
E|-----3-----------|-----3-----------|-----3-----------|-----------------|

G|-----------------|-----------------|-----------------|-----------------|-----------------|
D|---------1-1-----|---------1-1-----|---------1-1-----|-1-1-1-1-----1-0-|-----------------|
A|-3-3---3-----3-1-|-3-3---3-----3-1-|-3-3---3-----3-1-|---------1-1-----|-3---------------|
E|-----3-----------|-----3-----------|-----3-----------|-----------------|-----------------|
Смотрите также

Комментарии к аккордам Mano Negra - Soledad

comments powered by HyperComments
0.0078 s, 0.71MB