LDS Hymns - A Poor Wayfaring Man Of Grief

Тональность
-0+
Оцените подбор:
0
оценок: 0
20
Добавить в избранное

Автопрокрутка
Аккорды в подборе
Скрыть
A Poor Wayfaring Man of Grief 

e|-------|------------------|---------------|---------------|-----|
B|-------|------------------|----------1--2-|-1-------------|-----|
G|-------|-------1--1 p0--1-|-3--3--3-------|----1--1 p0--1-|-----|
D|--1----|----1--1--1-----1-|-1--1--1-----1-|-1--1--1-----1-|-----|
A|--3 /4-|-3--3-------------|---------------|---------------|-----|
E|-------|------------------|---------------|---------------|-----|  
      A   poor, way-far-ing Man of grief Hath of-ten crossed me
e|----------------|------------------|---------------|-------------|
B|----------------|------------------|----------1--2-|-------------|
G|--3-------------|-------1--1 p0--1-|-3--3--3-------|-------------|
D|--1--1--1--1----|----1--1--1-----1-|-1--1--1-----1-|-------------|
A|-----------3 /4-|-3--3-------------|---------------|-------------|
E|----------------|------------------|---------------|-------------|
   on my way, Who  sued  so hum - bly for re  - lief That
e|----------------|------------------|---------------|-------------|
B|--1--2--4 \2--1-|-------------1--2-|-4--4--4--2--1-|-------------|
G|----------------|-3--1--3--1-------|---------------|-------------|
D|--1--1--1-----1-|-------------1----|-1--1--1-----1-|-------------|
A|----------------|-4-----4--3-------|---------------|-------------|
E|----------------|------------------|---------------|-------------|
   I could nev-er  an -swer nay. I   had not  pow'r to
e|----------------|-----------------|------------------|-----------|
B|--2--2--2--1----|--1--------------|------------------|-----------|
G|--------------3-|------1--1 p0--1-|--3---------------|-----------|
D|--1--1--1-----1-|--1---1--1-----1-|--1---1--1---1----|-----------|
A|----------------|-----------------|-------------3 /4-|-----------|
E|----------------|-----------------|------------------|-----------|
   ask his name,Whereto he went,  or whence he came;Yet
e|-------------------|---------------|----------------|------------|
B|-------------------|----------1--2-|--1--2--4 \2--1-|------------|
G|--------1--1 p0--1-|-3--3--3-------|----------------|-3--1--3--1-|
D|-----1--1--1-----1-|-1--1--1-----1-|--1--1--1-----1-|------------|
A|--3--3-------------|---------------|----------------|-4-----4--3-|
E|-------------------|---------------|----------------|------------|
  There was something in his eye That won my love;  I  knew  not why. 
Смотрите также

Комментарии к аккордам LDS Hymns - A Poor Wayfaring Man Of Grief

comments powered by HyperComments
0.0107 s, 0.7MB