Тональность0+
Шрифт0
Комментарии: 0
Автопрокрутка

Kid Francescoli - The Player

Оцените подбор:
0
оценок: 0
9
Добавить в избранное

Аккорды в подборе
Скрыть
Palm muted picking

[Intro]

G|--------------------------------------------------|
D|--2-2-0-2----0-2-2-2-5-5--------------------------|
A|--------------------------3-3-2-3----2-3-3-3-5-5--|
E|--------------------------------------------------|

G|---------------------------5-5-5--5-4-2-2-2---2-0-|
D|--2-2-0-2----0-2-2-2-5-5--------------------------|
A|--------------------------------------------------|
E|--------------------------------------------------|

[Verse 1] x2

G|--------------------------------------------------|
D|--2-2-0-2----0-2-2-2-5-5--------------------------|
A|--------------------------3-3-2-3----2-3-3-3-5-5--|
E|--------------------------------------------------|

G|---------------------------5-5-5--5-4-2-2-2---2-0-|
D|--2-2-0-2----0-2-2-2-5-5--------------------------|
A|--------------------------------------------------|
E|--------------------------------------------------|

[Chorus] x2

G|--------------------------------------------------|
D|--2-2-0-2----0-2-2-2-5-5--------------------------|
A|--------------------------3-3-2-3----2-3-3-3-5-5--|
E|--------------------------------------------------|

G|---------------------------5-5-5--5-4-2-2-2---2-0-|
D|--2-2-0-2----0-2-2-2-5-5--------------------------|
A|--------------------------------------------------|
E|--------------------------------------------------|

[Verse 2] x2

G|--------------------------------------------------|
D|--2-2-0-2----0-2-2-2-5-5--------------------------|
A|--------------------------3-3-2-3----2-3-3-3-5-5--|
E|--------------------------------------------------|

G|---------------------------5-5-5--5-4-2-2-2---2-0-|
D|--2-2-0-2----0-2-2-2-5-5--------------------------|
A|--------------------------------------------------|
E|--------------------------------------------------|

[Bridge] x2

G|--------------------------------------------------|
D|--2-2-0-2----0-2-2-2-5-5--------------------------|
A|--------------------------3-3-2-3----2-3-3-3-5-5--|
E|--------------------------------------------------|

G|---------------------------5-5-5--5-4-2-2-2---2-0-|
D|--2-2-0-2----0-2-2-2-5-5--------------------------|
A|--------------------------------------------------|
E|--------------------------------------------------|

[Chorus] x2

G|--------------------------------------------------|
D|--2-2-0-2----0-2-2-2-5-5--------------------------|
A|--------------------------3-3-2-3----2-3-3-3-5-5--|
E|--------------------------------------------------|

G|---------------------------5-5-5--5-4-2-2-2---2-0-|
D|--2-2-0-2----0-2-2-2-5-5--------------------------|
A|--------------------------------------------------|
E|--------------------------------------------------|

[Outro] x2

G|--------------------------------------------------|
D|--2-2-0-2----0-2-2-2-5-5--------------------------|
A|--------------------------3-3-2-3----2-3-3-3-5-5--|
E|--------------------------------------------------|

G|---------------------------5-5-5--5-4-2-2-2---2-0-|
D|--2-2-0-2----0-2-2-2-5-5--------------------------|
A|--------------------------------------------------|
E|--------------------------------------------------|
Комментарии
0.0361 s, 0.73MB