Тональность0+
Шрифт0
Комментарии: 0
Автопрокрутка

Король и шут - Лесник, аккорды

    	    	[Вступление]:
Riff 1:
  Am                            F
1-------------------------------------------------------------
2-------------------------------------------------------------
3-------------------------------------------------------------
4---------------------------------------5-5-3-3--------5-5-3-3-
5---------5-5-7-7--------5-5-7-7-------------------------------
6-5-5-8-8---------55-8-8---------5-5-8-8--------5-5-8-8--------

 Dm                             G
----------------------------------------------------------------
----------------------------------------------------------------
----------------------------------------------------------------
-5-5-------------55---------------------------------------------
-----8-8-7-7-5-5----8-8-7-7-5-5-------------5-5-------------5-5-
--------------------------------3-3-7-7-8-8-----3-3-7-7-8-8-----

Riff 2:
  Am                 F
1--------------------------------------
2--------------------------------------
3--------------------------------------
4-----------------------5-3-------5-3--
5-----5-7-------5-7--------------------
6-5-8-----5-5-8------5-8-----5-5-8-----

 Dm                 G
--------------------------------------
--------------------------------------
--------------------------------------
-5-------5-5--------------------------
---8-7-5-----8-7-5--------5---------5-
--------------------3-7-8---3-3-7-8---

[Куплет 1]:
Am
Замученный дорогой,
   F         G
Я выбился из сил,
Am
И в доме лесника я
 F        G
Ночлега попросил,
Am
С улыбкой добродушной
  F         G
Старик меня впустил
Am
И жестом дружелюбным

На ужин пригласил
Dm
Хэй!

[Пред-припев]:
D C G

[Припев]:
(Riff 2)
Am
Будь как дома, путник,
        F
Я ни в чем не откажу,
       Dm
Я ни в чем не откажу,
        G
Я ни в чем не откажу,
Am
Множество историй
        F
Коль желаешь, расскажу,
       Dm
Коль желаешь, расскажу,
        G
Коль желаешь, расскажу


[Куплет 2]:
Am
На улице темнело,
 F         G
Сидел я за столом,
Am
Лесник сидел напротив,
 F               G
Болтал о том, о сем,
Am
Что нет среди животных
F           G
У старика врагов,
Am
Что нравится ему

Подкармливать волков
Dm
Хэй!

[Пред-припев]:
D C G

[Припев]:
(Riff 2)
Am
Будь как дома, путник,
        F
Я ни в чем не откажу,
       Dm
Я ни в чем не откажу,
        G
Я ни в чем не откажу,
Am
Множество историй
        F
Коль желаешь, расскажу,
        Dm
Коль желаешь, расскажу,
        G
Коль желаешь, расскажу


[Куплет 3]:

Bm
И волки среди ночи
G          A
Завыли под окном,
Bm
Старик заулыбался
G                A
И вдруг покинул дом,
Bm
Но вскоре возвратился
G               A
С ружьем наперевес:
Bm
"Друзья хотят покушать,

Пойдем, приятель, в лес !"

[Пред-припев]:
D C G

[Припев]:
(Riff 2)
Bm
Будь как дома, путник,
        G
Я ни в чем не откажу,
       Em
Я ни в чем не откажу,
       A
Я ни в чем не откажу,
Bm
Множество историй
        G
Коль желаешь, расскажу,
       Em
Коль желаешь, расскажу,
        A
Коль желаешь, расскажу


[Проигрыш]:
Am F G x2		
    

Аккорды в подборе (аппликатуры)
Скрыть
Am Варианты F Варианты Dm Варианты G Варианты D Варианты C Варианты Bm Варианты A Варианты Em Варианты
Оцените подбор:
5
оценок: 2
3499383
32
Каким боем играть песню Король и шут - Лесник? Голосуй!
Виды гитарного боя и как их играть
Видео песни Король и шут - Лесник
Комментарии
0.0559 s, 3.94MB, p