Кино и мультфильмы - Игра престолов (табы)

Тональность
-0+
Оцените подбор:
0
оценок: 0
285119
Добавить в избранное
Аккорды в подборе
Скрыть
Bm Варианты B Варианты Fm Варианты Gm Варианты C Варианты Gm7 Варианты F Варианты
-----------------------------------------------------------------------------------------------------------
-----------------------------------------------------------------------------------------------------------
-----------------------------------------------------------------------------------------------------------
-7-357--357-357-357-457-457--457-357-352----2----2-----2-5-325-3-2--------------------
--5-----5-----5----5----5----5-----5-----5----5----035-035-035----3----3----5135135135----
-----------------------------------------------------------------------------------------------------------

------------------------------------------------------------------------------------------------------------
------------------------------------------------------------------------------------------------------------
------------------------------------------------------------------------------------------------------------
7--357--352-----2-----2----5-325-3-2---------------------------------------------------------------
--5-----5-----035--035-035-3----3----501350135035--------------------------------------------
--------------------------------------------------------------------------------------------------------------

Соло-гитара:

PART ONE: First Variation

----------------|---------------|------------------|-----------------|-----|
----------------|---------------|------------------|-----------------|-----|
----------------|---------------|------------------|-----------------|-----|
----------------|---------------|------------------|-----------------|-----|
--10-----------|---------------|--6--8--10------|---------6--8--|--5--|
----------------|--8------------|------------------|--8--------------|-----|

-------|---------------|-----------------|---------------|-----------------|
-------|---------------|-----------------|---------------|-----------------|
-------|---------------|-----------------|---------------|-----------------|
-------|---------------|-----------------|---------------|-----------------|
--8---|---------------|--5--6--8-------|---------------|--6--5-----------|
-------|--6------------|-----------------|--6------------|--------8--------|

PART ONE: A (Second Variation)

---------|--------------|------------------|-------------------|----------|
--8------|-------------|---------8--------|-------------------|----------|
---------|--------------|--8--10---------|-----------8--10--|--7-------|
---------|--10---------|------------------|--10--------------|----------|
---------|--------------|------------------|-------------------|----------|
---------|--------------|------------------|-------------------|----------|

---------|--------------|------------------|----------------|--------------|
---------|--------------|------------------|----------------|--------------|
--10----|--------------|--7--8--10------|----------------|-8--7---------|
---------|--8-----------|------------------|--8------------|-------10-----|
---------|--------------|------------------|----------------|--------------|
---------|--------------|------------------|----------------|--------------|

PART ONE: B (Third Variation)

---------|--------------|------------------|-------------------|----------|
--8-----|--------------|---------8--------|-------------------|----------|
---------|--------------|--8--10---------|----------8--10--|--7-------|
---------|--10---------|------------------|--10--------------|----------|
---------|--------------|------------------|-------------------|----------|
---------|--------------|------------------|-------------------|----------|

---------|--------------|------------------|----------------|--------------|
---------|--------------|------------------|----------------|--------------|
--10----|--------------|--7------8-------|--7------------|--------------|
---------|--8-----------|------------------|----------8----|---10---------|
---------|--------------|------------------|----------------|--------------|
---------|--------------|------------------|----------------|--------------|

PART TWO: First Variation
       
------|-----------------|---------------|----------------|---------------|
------|-----------------|---------------|----------------|---------------|
------|-----------------|---------------|----------------|---------------|
10---|----------10----|--8-----------|-----------8----|---------------|
------|-----------------|---------------|----------------|---------------|
------|-----------------|---------------|----------------|--8------------|
         

----------------|----------------|---------------|---------------|
----------------|----------------|---------------|---------------|
----------------|----------------|---------------|---------------|
----------------|----------------|---------------|---------------|
----------------|--10-----------|---------------|---------------|
-----------8----|----------------|---------------|--4------------|


----------------|---------------|---------------|----------------|
----------------|---------------|---------------|----------------|
----------------|---------------|---------------|----------------|
----------------|---------------|---------------|----------------|
----------------|--6------------|--8-----------|--10------------|
-----------4----|---------------|---------------|----------------|

PART TWO: Second Variation

       
------|-----------------|---------------|----------------|---------------|
------|-----------------|---------------|----------------|---------------|
------|-----------------|---------------|----------------|---------------|
10---|-----------------|--8-----------|----------------|---------------|
------|-----------------|---------------|----------------|---------------|
------|-----------------|---------------|----------------|--8------------|
         

----------------|----------------|---------------|---------------|
----------------|----------------|---------------|---------------|
----------------|----------------|---------------|---------------|
----------------|----------------|---------------|---------------|
----------------|----------------|---------------|---------------|
-----------8----|----------------|---------------|--4------------|


----------------|---------------|---------------|----------------|
----------------|---------------|---------------|----------------|
----------------|---------------|---------------|----------------|
----------------|---------------|---------------|----------------|
----------------|--6------------|--5------------|----------------|
----------------|---------------|---------------|--8-------------|



Ритм-гитара:

INTRO: 

   Cm 
E||------------------|------------------|------------------|----------------|
B||--1--------------|--1--------------|--1--------------|--1-------------|
G||--------------0--|--------------0--|--------------0--|-------------0--|
D||-----------1-----|-----------1-----|-----------1-----|----------1-----|
A||------3----------|------3----------|------3----------|-------3--------|
E||------------------|------------------|------------------|----------------|

   C 
E||------------------|------------------|------------------|----------------|
B||--1--------------|--1---------------|--1---------------|--1-------------|
G||--------------0--|---------------0--|---------------0--|-------------0--|
D||-----------2-----|------------2-----|------------2-----|----------2-----|
A||------3----------|-------3----------|-------3----------|-------3--------|
E||------------------|------------------|------------------|----------------|


Part One: A

 Cm                                                                        
------------------|------------------|------------------|------------------|
--1--------------|--1---------------|--1---------------|--1---------------|
--------------0--|---------------0--|---------------0--|---------------0--|
-----------1-----|------------1-----|------------1-----|------------1-----|
------3----------|-------3----------|-------3----------|-------3----------|
------------------|------------------|------------------|------------------|


  Gm                                                                       
------------------|------------------|------------------|------------------|
------------------|------------------|------------------|------------------|
--0--------------|--0---------------|--0---------------|--0---------------|
--------------0--|---------------0--|---------------0--|---------------0--|
-----------1-----|------------1-----|------------1-----|------------1-----|
------3----------|-------3----------|-------3----------|-------3----------|


  A#                                                                        
------------------|------------------|------------------|------------------|
------------------|------------------|------------------|------------------|
--3---------------|--3---------------|--3---------------|--3---------------|
------------0--3--|------------0--3--|------------0--3--|------------0--3--|
-------1----------|-------1----------|-------1----------|-------1----------|
------------------|------------------|------------------|------------------|


  Fm                                                                         
------------------|------------------|------------------|------------------|
------------------|------------------|------------------|------------------|
------------------|------------------|------------------|------------------|
--3---------------|--3--------------|--3---------------|--3---------------|
---------------3--|--------------3--|---------------3--|---------------3--|
-------1----4-----|-----1----4-----|-------1----4-----|-------1----4-----|



Part One: B x 2

 Cm                                                                        
------------------|------------------|------------------|------------------|
--1---------------|--1---------------|--1---------------|--1---------------|
---------------0--|---------------0--|---------------0--|---------------0--|
------------1-----|------------1-----|------------1-----|------------1-----|
-------3----------|-------3----------|-------3----------|-------3----------|
------------------|------------------|------------------|------------------|


  Gm                                                                       
------------------|------------------|------------------|------------------|
------------------|------------------|------------------|------------------|
--0---------------|--0---------------|--0---------------|--0---------------|
---------------0--|---------------0--|---------------0--|---------------0--|
------------1-----|------------1-----|------------1-----|------------1-----|
-------3----------|-------3----------|-------3----------|-------3----------|


  A#                                                                        
------------------|------------------|------------------|------------------|
------------------|------------------|------------------|------------------|
--3---------------|--3---------------|--3---------------|--3---------------|
------------0--3--|------------0--3--|------------0--3--|------------0--3--|
-------1----------|-------1----------|-------1----------|-------1----------|
------------------|------------------|------------------|------------------|

 Cm                                                                        
------------------|------------------|------------------|------------------|
--1---------------|--1---------------|--1---------------|--1---------------|
---------------0--|---------------0--|---------------0--|---------------0--|
------------1-----|------------1-----|------------1-----|------------1-----|
-------3----------|-------3----------|-------3----------|-------3----------|
------------------|------------------|------------------|------------------|


PART TWO: x2

 G#                                    D#                                   
------------------|------------------|------------------|------------------|
------------------|------------------|--4---------------|--4---------------|
--1---------------|--1---------------|------------0--3--|------------0--3--|
---------------1--|---------------1--|-------1----------|-------1----------|
------------3-----|------------3-----|------------------|------------------|
-------4----------|-------4----------|------------------|------------------|


  Fm                                    Cm                                  
--1---------------|--1---------------|------------------|------------------|
---------------1--|---------------1--|--1---------------|--1---------------|
------------1-----|------------1-----|---------------0--|---------------0--|
-------3----------|-------3----------|------------1-----|------------1-----|
------------------|------------------|-------3----------|-------3----------|
------------------|------------------|------------------|------------------|


  G#                                    Fm7                G                 
------------------|------------------|------------------|------------------|
------------------|------------------|------------------|------------------|
--1---------------|--1---------------|------------------|------------------|
---------------1--|---------------1--|--1---------------|--3------------0--|
------------3-----|------------3-----|---------------3--|------------2-----|
-------4----------|-------4----------|-------1----4-----|-------3----------|


  Cm                                                                        
------------------|------------------|------------------|------------------|
--1---------------|--1---------------|--1---------------|--1---------------|
---------------0--|---------------0--|---------------0--|---------------0--|
------------1-----|------------1-----|------------1-----|------------1-----|
-------3----------|-------3----------|-------3----------|-------3----------|
------------------|------------------|------------------|------------------|

OUTRO: x2

   Cm                                                 
--------------------------|--------------------------|
--(1)---------------------|--(1)---------------------|
---------------------(0)--|---------------------(0)--|
----------------(1)-------|----------------(1)-------|
---------(3)--------------|---------(3)--------------|
--------------------------|--------------------------|


Аккорды:


INTRO:       Bm / Bm / Bm / Bm
             Bm / Bm / Bm / Bm

PART ONE:    Bm / Bm / Bm / Bm
    B        Fm / Fm / Fm / Fm
             Bm / Bm / Bm / Bm
             Gm / Gm / Gm / Gm

PART ONE:    Bm / Bm / Bm / Bm
    C        Fm / Fm / Fm / Fm
    x2       Bm / Bm / Bm / Bm
             Bm / Bm / Bm / Bm

PART TWO:    Fm / Fm / Fm / Fm
  x2         Gm / Gm / Bm / Bm
             Fm / Fm / Gm7/ F
             Bm / Bm / Bm / Bm
Смотрите также
comments powered by HyperComments
0.0065 s, 0.78MB