Тональность0+
Шрифт0
Комментарии: 0
Автопрокрутка

Juice WRLD - Ring Ring

Оцените подбор:
0
оценок: 0
56
Добавить в избранное

Аккорды в подборе
Скрыть
[Intro & Verse]

e|----------------------------------------------|
B|----------------------------------------------|
G|-----8---------3---------5--------------------|
D|---8---8-----3---3-----5---5-------6----------|
A|-6---------1---------3-----------6---6--------|
E|-------------------------------4--------------|

e|----------------------------------------------|
B|------9--------------------3------------------|
G|--------10-------------------3-------8--------|
D|---10------------6-------3---------8---8------|
A|-8-------------6---6---1---------6------------|
E|-------------4--------------------------------|

e|----------------------------------------------|
B|----------------------------------------------|
G|-8----3----5---------10--------3----8---------|
D|-8----3----5----6----10---6----3----8---------|
A|-6----1----3----6----8----6----1----6---------|
E|----------------4---------4-------------------|

[Chorus]

Works better using hybrid picking/fingerstyle

e|----------------------------------------------|
B|----------------------------------------------|
G|-----8---------3---------5--------------------|
D|-----8---------3---------5---------6----------|
A|-6-6---6---1-1---1---3-3---3-------6----------|
E|-------------------------------4-4---4--------|

e|----------------------------------------------|
B|----------------------------------------------|
G|-----10-------------------3---------8---------|
D|-----10---------6---------3---------8---------|
A|-8-8----8-------6-----1-1---1---6-6---6-------|
E|------------4-4---4---------------------------|
Комментарии
0.0314 s, 0.74MB