Тональность0+
Шрифт0
Комментарии: 0
Автопрокрутка

Johnny Hallyday - Que Ma Harley Repose En Paix

Оцените подбор:
0
оценок: 0
4
Добавить в избранное

Аккорды в подборе
Скрыть
Abm7 Варианты B5/A# Варианты B5/A Варианты G7M Варианты B5 Варианты E5 Варианты F#5 Варианты B Варианты E Варианты F# Варианты G# Варианты
----------------------------------------------------------------------------------------------------
                                 Johnny Hallyday - Que Ma Harley Repose En Paix
----------------------------------------------------------------------------------------------------

Album : Ce que je sais (1998)
Tempo : 72

Voir mon fichier Guitar Pro

Abm7  : 4x44xx
B5/A# : x144xx
B5/A  : x044xx
G7M   : 3x44xx

[Intro]

    B5                     Abm7                          E5                      F#5
e|----------------------------------------------------|----------------------------------------------------|
B|----------------------------------------------------|----------------------------------------------------|
G|--------------4--------------------4----------------|----------------------------------------------------|
D|--------4-----------4-----------4g-4s-6h-4----------|--------------2-----------------------4-------------|
A|--2-----------------------------------------6s-4----|--------2-----------------------4--------4g---------|
E|--------------------------4-------------------------|--0-----------------0-----2-----------------2-------|


    B5                     Abm7                          E5                      F#5
e|----------------------------------------------------|----------------------------------------------------|
B|----------------------------------------------------|--------------------------------------2s-4--2-------|
G|--------------4--------------------4----------------|--------------------------------1s-3-----------3s---|
D|--------4-----4-----4-----------4g-4s-6h-4----------|--------------2-----------4-------------------------|
A|--2-----------------------------------------6s-4----|--------2-----------------4-------------------------|
E|--------------------------4-------------------------|--0-----------------0-----2-------------------------|


[Couplet 1]
B5                  Abm7
  Elle était belle, elle était bleue
E5                          F#5
  Sûr qu'elle n'aurait pas froid aux yeux
B5                       Abm7
  Dans mes traversées du désert
E5                       F#5
  Elle mangerait la terre
B5                            B5/A#
  Elle m'a regardé dans ses rétros
B5/A                              Abm7
   C'était bien plus fort que des mots
           G7M
j'ai dit :     Si je pars sans elle de Los Angeles
F#5
     Que les anges me laissent

[Refrain 1]
B       Abm7          E      F#
Longue       A été la route
    B      Abm7            E      F#
Et longue      Est l'éternité
G#       F#
  Que ma Harley
E        B
  Que ma Harley
E        E
  Que ma Harley
F#
Repose en paix

[Post Refrain 1]
B5 Abm7 E5 F#5

B5             Abm7 E5 F#5
Repose en paix

[Couplet 2]
B5               Abm7
  Sur le Pacific Coast Highway
E5                     F#5
  Derrière nous les sirènes hurlaient
B5                          Abm7
  Et quand les flics nous arrêtaient
E5                   F#5
  J'leur parlais français, ouais
B5               B5/A#
  C'était mon Amérique à moi
B5/A                        Abm7
   Elle m'entraînait où j'entrais pas
     G7M
Elle ressortait par où je sais pas
     F#5
Mais toujours avec moi

[Refrain 2]
B       Abm7          E      F#
Longue       A été la route
    B      Abm7            E      F#
Et longue      Est l'éternité
B       Abm7          E      F#
Longue       A été la route
    B      Abm7            E      F#
Et longue      Est l'éternité
G#       F#
  Que ma Harley
E        B
  Que ma Harley
E        E       F#
  Que ma Harley

[Post Refrain 2]
          B5 Abm7 E5 F#5
Repose en paix
B5             Abm7 E5 F#5
Repose en paix

[Solo]
B Abm7 E F#
B Abm7 E F#

[Refrain 3]
B       Abm7          E      F#
Longue
B       Abm7   E          F#
Longue         Est l'éternité
G#       F#
  Que ma Harley
E        B
  Que ma Harley
E        E       F#
  Que ma Harley

[Outro]
          B5 Abm7 E5 F#5
Repose en paix
          B5     Abm7 E5 F#5
Repose en paix
          B5
Repose en paix
Комментарии
0.0477 s, 0.83MB