Тональность0+
Шрифт0
Комментарии: 0
Автопрокрутка

Iron Cathedral - Witch Banger

Оцените подбор:
0
оценок: 0
24
Добавить в избранное

Аккорды в подборе
Скрыть
[Verse 0:49-1:17 ]

E |--------------------------------------------------------------------------|
B |---------------------3-------5-3-5-3--------------------------------------|
F#|---5-3-5---5-3-5-3-5-----------------5---------------X4-------------------|
B |-0-----------------------5-5----------------------------------------------|


[Bridge 1:17-1:32]

G|---------------------------------------------------------------------------|
D|---------------------------------------------------------------------------|
A|---------------------------------------------------------------------------|
E|-0~~~~~~~~~~---5~~~~~~~~~~~~-0~~~~~~~~~~~~5~~~~~~~~~~----------------------|



[Breakdown 1:32-1:46]

G|---------------------------------------------------------------------------|
D|---------------------------------------------------------------------------|
A|-----5p3p0-------5p3p0--------------------------X4-------------------------|
E|-0-0-------5-3-3-------5-3-3-5-3-------------------------------------------|


[Verse]

E |--------------------------------------------------------------------------|
B |---------------------3-------5-3-5-3--------------------------------------|
F#|---5-3-5---5-3-5-3-5-----------------5---------------X4-------------------|
B |-0-----------------------5-5----------------------------------------------|


[Bridge]
G|---------------------------------------------------------------------------|
D|---------------------------------------------------------------------------|
A|---------------------------------------------------------------------------|
E|-0~~~~~~~~~~---5~~~~~~~~~~~~-0~~~~~~~~~~~~5~~~~~~~~~~----------------------|

[Breakdown - Same except played X8]
G|---------------------------------------------------------------------------|
D|---------------------------------------------------------------------------|
A|-----5p3p0-------5p3p0--------------------------X8-------------------------|
E|-0-0-------5-3-3-------5-3-3-5-3-------------------------------------------|



************************************

| ~  Vibrato
| p  Pull-off

************************************
Комментарии
0.0344 s, 0.73MB