Тональность0+
Шрифт0
Комментарии: 0
Автопрокрутка

Illenium - Good Things Fall Apart

Оцените подбор:
0
оценок: 0
38
Добавить в избранное

Аккорды в подборе
Скрыть
[Intro]

e|--------------------------------|------------------------------------------|
B|-5------------------------------|--5-------------------------7-----5-------|
G|----5---5\4---2/4---4\2---0h2p0-|------5---5\4--7---2---0-------0----------|
D|--------------------------------|------------------------------------------|
A|--------------------------------|------------------------------------------|
E|--------------------------------|------------------------------------------|
                                     
e|-3-------------------------2---2---2---2-----------------------------------|
B|-3----3---3----------------3---3---3---3-----------------------------------|
G|-0--------------0---0------2---2---2---2-----------------------------------|
D|-0------0---------0--------------------------------------------------------|
A|-2-------------------------------------------------------------------------|
E|-3-------------------------------------------------------------------------|



************************************

| h   Hammer-on
| p   Pull-off
| /   Slide up
| \   Slide down

************************************

I recommend palm muting the D chord at the end a couple times :)

This is the first tab I've ever submitted!
It sounds decent to my ears anyway.
I hope it helps you, and feel free to
tweak it to suit your style!

--- Jordan

************************************
Комментарии
0.0545 s, 0.73MB