Тональность0+
Шрифт0
Комментарии: 0
Автопрокрутка

Hellbillies - Den Finaste Eg Veit

Оцените подбор:
0
оценок: 0
5
Добавить в избранное

Аккорды в подборе
Скрыть
[Intro]

     D                                           Bm               D

e|------------0--2--0h2p0---------0----------------------------------------0--2--0h2p0---------|
B|---------3---------------3---------3--2--/3----3--------0-------------3---------------3------|
G|------2---------------------2------------------------4-------------2---------------------2---|
D|---0----------------------------------------------4-------------0----------------------------|
A|--------------------------------0--------------2---------------------------------------------|
E|---------------------------------------------------------------------------------------------|

                       D            

e|---------------0--------0-----0------------------|
B|---3-----/5----------------------3--------------|
G|---------------------2-----2---------------------|
D|-------------------------------------------------|
A|---0---------------------------------------------|
E|-------------------------------------------------|


     D                                           Bm               

e|------------0--2--0h2p0---------0-------------------------------------------------------|
B|---------3---------------3---------3--2--/3----3--------0--------------3---3------------|
G|------2---------------------2------------------------4--------------0------2-p0---------|
D|---0----------------------------------------------4--------------2----------------------|
A|--------------------------------0--------------2----------------------------------------|
E|--------------------------------------------------------------0------------3------------|

e|-------------------------------|
B|---0--------0-----------3------|
G|---------0-----------0---------|
D|------0-----------2------------|
A|-------------------------------|
E|---3---------------------------|


Intro tab written based on this YouTube video: https://www.youtube.com/watch?v=Gf2EWsH1qQ4



| /  slide up
| h  hammer-on
| p  pull-off
Комментарии
0.0340 s, 0.73MB