Тональность0+
Шрифт0
Комментарии: 0
Автопрокрутка

Gotthard - Mighty Quinn

Оцените подбор:
0
оценок: 0
5
Добавить в избранное

Аккорды в подборе
Скрыть
[Intro]


 |Q                   S S Q       |Q                               |Q                   S S Q       |
G|--------------------------------|--------------------------------|--------------------------------|
D|--------------------------------|--------------------------------|--------------------------------|
A|--------------------------------|--------------------------------|--------------------------------|
E|0-------------------3-0-5-------|0-------------------------------|0-------------------3-0-5-------|
B|--------------------------------|--------------------------------|--------------------------------|
 |1   +   2   +   3   +   4   +   |1   +   2   +   3   +   4   +   |1   +   2   +   3   +   4   +   | 


 |Q                 S S S S S E   |Q                   S S Q       |Q                               |
G|--------------------------------|--------------------------------|--------------------------------|
d|--------------------------------|--------------------------------|--------------------------------|
A|--------------------------------|--------------------------------|--------------------------------|
E|0-----------------0-3-0-5-0-3---|0-------------------3-0-5-------|0-------------------------------|
B|--------------------------------|--------------------------------|--------------------------------|
 |1   +   2   +   3   +   4   +   |1   +   2   +   3   +   4   +   |1   +   2   +   3   +   4   +   |


 |Q                   S S Q       |Q                S  S  S  S  S  S  S  S |
G|--------------------------------|----------------13/14\13/14\13/14\13/14-|
D|--------------------------------|----------------11/12\11/12\11/12\11/12-|
A|--------------------------------|----------------------------------------|
E|0-------------------3-0-5-------|0---------------------------------------|
B|--------------------------------|----------------------------------------|
 |1   +   2   +   3   +   4   +   |1   +   2   +   3      +     4     +    |



[Verse 1]


 |Q                   S S Q       |Q                               |Q                   S S Q       |
G|--------------------------------|--------------------------------|--------------------------------|
D|--------------------------------|--------------------------------|--------------------------------|
A|--------------------------------|--------------------------------|--------------------------------|
E|0-------------------3-0-5-------|0-------------------------------|0-------------------3-0-5-------|
B|--------------------------------|--------------------------------|--------------------------------|
 |1   +   2   +   3   +   4   +   |1   +   2   +   3   +   4   +   |1   +   2   +   3   +   4   +   | 


 |Q                 S S S S S E   |Q                   S S Q       |Q                   E   S S E   |
G|--------------------------------|--------------------------------|--------------------------------|
d|--------------------------------|--------------------------------|--------------------------------|
A|--------------------------------|--------------------------------|--------------------2---0-------|
E|0-----------------0-3-0-5-0-3---|0-------------------3-0-5-------|0-------------------------3-0---|
B|--------------------------------|--------------------------------|--------------------------------|
 |1   +   2   +   3   +   4   +   |1   +   2   +   3   +   4   +   |1   +   2   +   3   +   4   +   |


 |H               H               |H               E   E   E   E   |
G|--------------------------------|--------------------------------|
D|--------------------------------|--------------------------------|
A|----------------2---------------|0-------------------------------|
E|0-------------------------------|----------------0---------------|
B|--------------------------------|--------------------2---3---4---|
 |1   +   2   +   3   +   4   +   |1   +   2   +   3   +   4   +   |



[Chorus 1]


 |E Q   E E Q   E |E Q   E E Q   E |E Q   E E Q   E |E Q   E E E E E |
G|----------------|----------------|----------------|----------------|
D|----------------|----------------|----------------|----------------|
A|----------------|2-2---2---------|--------2-2---2-|0-0---0---------|
E|0-0---0-0-0---0-|--------0-0---0-|0-0---0---------|--------0-------|
B|----------------|----------------|----------------|----------2-3-4-|
 |1 + 2 + 3 + 4 + |1 + 2 + 3 + 4 + |1 + 2 + 3 + 4 + |1 + 2 + 3 + 4 + |


 |E Q   E E Q   E |E Q   E E Q   E |E Q   E E Q   E |E E E E E E E E |
G|----------------|----------------|----------------|----------------|
D|----------------|----------------|----------------|----------------|
A|----------------|2-2---2---------|--------2-2---2-|0-4-5-6-7-4-5-6-|
E|0-0---0-0-0---0-|--------0-0---0-|0-0---0---------|----------------|
B|----------------|----------------|----------------|----------------|
 |1 + 2 + 3 + 4 + |1 + 2 + 3 + 4 + |1 + 2 + 3 + 4 + |1 + 2 + 3 + 4 + |



[Post-Chorus 1]


 |Q                   S S Q       |Q                               |
G|--------------------------------|--------------------------------|
D|--------------------------------|--------------------------------|
A|--------------------------------|--------------------------------|
E|0-------------------3-0-5-------|0-------------------------------|
B|--------------------------------|--------------------------------|
 |1   +   2   +   3   +   4   +   |1   +   2   +   3   +   4   +   |


 |Q                   S S Q       |Q                 S S S S S E   |
G|--------------------------------|--------------------------------|
D|--------------------------------|--------------------------------|
A|--------------------------------|--------------------------------|
E|0-------------------3-0-5-------|0-----------------0-3-0-5-0-3---|
B|--------------------------------|--------------------------------|
 |1   +   2   +   3   +   4   +   |1   +   2   +   3   +   4   +   |



[Verse 2]


 |Q                   S S Q       |Q                               |Q                   S S Q       |
G|--------------------------------|--------------------------------|--------------------------------|
D|--------------------------------|--------------------------------|--------------------------------|
A|--------------------------------|--------------------------------|--------------------------------|
E|0-------------------3-0-5-------|0-------------------------------|0-------------------3-0-5-------|
B|--------------------------------|--------------------------------|--------------------------------|
 |1   +   2   +   3   +   4   +   |1   +   2   +   3   +   4   +   |1   +   2   +   3   +   4   +   | 


 |Q                 S S S S S E   |Q                   S S Q       |Q                   E   S S E   |
G|--------------------------------|--------------------------------|--------------------------------|
d|--------------------------------|--------------------------------|--------------------------------|
A|--------------------------------|--------------------------------|--------------------2---0-------|
E|0-----------------0-3-0-5-0-3---|0-------------------3-0-5-------|0-------------------------3-0---|
B|--------------------------------|--------------------------------|--------------------------------|
 |1   +   2   +   3   +   4   +   |1   +   2   +   3   +   4   +   |1   +   2   +   3   +   4   +   |


 |H               H               |H               E   E   E   E   |
G|--------------------------------|--------------------------------|
D|--------------------------------|--------------------------------|
A|----------------2---------------|0-------------------------------|
E|0-------------------------------|----------------0---------------|
B|--------------------------------|--------------------2---3---4---|
 |1   +   2   +   3   +   4   +   |1   +   2   +   3   +   4   +   |



[Chorus 2]


 |E Q   E E Q   E |E Q   E E Q   E |E Q   E E Q   E |E Q   E E E E E |
G|----------------|----------------|----------------|----------------|
D|----------------|----------------|----------------|----------------|
A|----------------|2-2---2---------|--------2-2---2-|0-0---0---------|
E|0-0---0-0-0---0-|--------0-0---0-|0-0---0---------|--------0-------|
B|----------------|----------------|----------------|----------2-3-4-|
 |1 + 2 + 3 + 4 + |1 + 2 + 3 + 4 + |1 + 2 + 3 + 4 + |1 + 2 + 3 + 4 + |


 |E Q   E E Q   E |E Q   E E Q   E |E Q   E E Q   E |E E E E E E E E |
G|----------------|----------------|----------------|----------------|
D|----------------|----------------|----------------|----------------|
A|----------------|2-2---2---------|--------2-2---2-|0---------------|
E|0-0---0-0-0---0-|--------0-0---0-|0-0---0---------|----------------|
B|----------------|----------------|----------------|--2-3-4-5-2-3-4-|
 |1 + 2 + 3 + 4 + |1 + 2 + 3 + 4 + |1 + 2 + 3 + 4 + |1 + 2 + 3 + 4 + |



[Solo]


 |E Q   E E Q   E |E Q   E E E E E |
G|----------------|----------------|
D|----------------|----------------|
A|--------2-2---2-|0-0---0---------|  x3
E|0-0---0---------|--------0-------|
B|----------------|----------2-3-4-|
 |1 + 2 + 3 + 4 + |1 + 2 + 3 + 4 + |


 |E Q   E E Q   E |E E E E E E E E |E E E E E  E E  E | 
G|----------------|----------------|------------------|
D|----------------|----------------|------------------|
A|--------2-2---2-|0-0-0-0-0-------|------------------|
E|0-0---0---------|----------4-5-6-|7-7-7-7-7/11\7/11\|
B|----------------|----------------|------------------|
 |1 + 2 + 3 + 4 + |1 + 2 + 3 + 4 + |1 + 2 + 3  + 4  + |



[Chorus 3]


 |Q               |                |                |                |
G|----------------|----------------|----------------|----------------|
D|----------------|----------------|----------------|----------------|
A|----------------|----------------|----------------|----------------|
E|5---------------|----------------|----------------|----------------|
B|----------------|----------------|----------------|----------------|
 |1 + 2 + 3 + 4 + |1 + 2 + 3 + 4 + |1 + 2 + 3 + 4 + |1 + 2 + 3 + 4 + |


 |                |                |                |                S S S S S S E   |
G|----------------|----------------|----------------|--------------------------------|
D|----------------|----------------|----------------|----------------7-5-------------|
A|----------------|----------------|----------------|--------------------7-5---------|
E|----------------|----------------|----------------|------------------------7-5-----|
B|----------------|----------------|----------------|----------------------------8---| 
 |1 + 2 + 3 + 4 + |1 + 2 + 3 + 4 + |1 + 2 + 3 + 4 + |1   +   2   +   3   +   4   +   |



[Chorus 4]


 |E Q   E E Q   E |E Q   E E Q   E |E Q   E E Q   E |E Q   E E E E E |
G|----------------|----------------|----------------|----------------|
D|----------------|----------------|----------------|----------------|
A|----------------|2-2---2---------|--------2-2---2-|0-0---0---------|  x2
E|0-0---0-0-0---0-|--------0-0---0-|0-0---0---------|--------0-------|
B|----------------|----------------|----------------|----------2-3-4-|
 |1 + 2 + 3 + 4 + |1 + 2 + 3 + 4 + |1 + 2 + 3 + 4 + |1 + 2 + 3 + 4 + |



[Outro]


 |E Q   E E Q   E |E Q   E E E E E |
G|----------------|----------------|
D|----------------|----------------|
A|--------2-2---2-|0-0---0---------|  x2
E|0-0---0---------|--------0-------|
B|----------------|----------2-3-4-|
 |1 + 2 + 3 + 4 + |1 + 2 + 3 + 4 + |


 |E Q   E E Q   E |E E E E E E E E |E Q   E E Q   E |E E E (hold)    |                |
G|----------------|----------------|----------------|----------------|----------------|
D|----------------|----------------|----------------|----------------|----------------|
A|--------2-2---2-|0-4-5-6-7-4-5-6-|--------2-2---2-|0---------------|----------------|
E|0-0---0---------|----------------|0-0---0---------|--4-2-0---------|(0)-------------|
B|----------------|----------------|----------------|----------------|----------------|
 |1 + 2 + 3 + 4 + |1 + 2 + 3 + 4 + |1 + 2 + 3 + 4 + |1 + 2 + 3 + 4 + |1 + 2 + 3 + 4 + | 




************************************

| (n) Ghost note
| /   Slide up
| \   Slide down
| S   Sixteenth note
| E   Eighth note
| Q   Quarter note
| H   Half note

************************************
Комментарии
0.0358 s, 0.75MB