Тональность0+
Шрифт0
Комментарии: 0
Автопрокрутка

FIDLAR - Flake

Оцените подбор:
0
оценок: 0
5
Добавить в избранное

Аккорды в подборе
Скрыть
[Intro]
G|--------------------------------|--------------------------------|
D|--------------------------------|--------------------------------|
A|---------8--8---8-6--6---6------|----6--6---6----------6--8------| (x2)
E|8--8---8-------------------3--3-|--3----------3--3---3-------8--8|


[Verse 1]
G|---------------------------------------------|---------------------------------------------|
D|---------------------------------------------|---------------------------------------------|
A|----------------------6-6---6-6---6-8---6-8--|----------------------6-6---6-6---6----------|
E|8---8-8---8-8---8-8-------------------------6|8---8-8---8-8---8-8-----------------3---3-3-6|


[Pre-Chorus 1]
G|---------------------------------------------|---------------------------------------------|
D|---------------------------------------------|---------------------------------------------|
A|------------------------6---6-6---6-6---6-6-5|------------------------6---6-6---6-6/-------|
E|8---8-8---8-8---8-8-10-----------------------|8---8-8---8-8---8-8-10-----------------------|


[Chorus 1]
G|--------------------------------|--------------------------------|
D|--------------------------------|--------------------------------|
A|---------8--8---8-6--6---6------|----6--6---6----------6--8------| (x4)
E|8--8---8-------------------3--3-|--3----------3--3---3-------8--8|

G|---------------|
D|---------------|
A|---------------|
E|8/-------------|


[Solo 1]
G|--------------------------------|--------------------------------|
D|--------------------------------|--------------------------------|
A|---------8--8---8-6--6---6------|----6--6---6----------6--8------| (x2)
E|8--8---8-------------------3--3-|--3----------3--3---3-------8--8|


[Verse 2]
G|---------------------------------------------|---------------------------------------------|
D|---------------------------------------------|---------------------------------------------|
A|----------------------6-6---6-6---6-8---6-8--|---------------------------------------------|
E|8---8-8---8-8---8-8-------------------------6|8---8-8---8-8---8-8--------------------------|

G|---------------------------------------------|---------------------------------------------|
D|---------------------------------------------|---------------------------------------------|
A|----------------------6-6---6-6---6-8---6-8--|----------------------6-6---6-6---6----------|
E|8---8-8---8-8---8-8-------------------------6|8---8-8---8-8---8-8-----------------3---3-3-6|


[Pre-Chorus 2]
G|---------------------------------------------|---------------------------------------------|
D|---------------------------------------------|---------------------------------------------|
A|------------------------6---6-6---6-6---6-6-5|------------------------6---6-6---6-6/-------|
E|8---8-8---8-8---8-8-10-----------------------|8---8-8---8-8---8-8-10-----------------------|


[Chorus 2]
G|--------------------------------|--------------------------------|
D|--------------------------------|--------------------------------|
A|---------8--8---8-6--6---6------|----6--6---6----------6--8------| (x4)
E|8--8---8-------------------3--3-|--3----------3--3---3-------8--8|


[Solo 2]
G|--------------------------------|--------------------------------|
D|--------------------------------|--------------------------------|
A|---------8--8---8-6--6---6------|----6--6---6----------6--8------| (x2)
E|8--8---8-------------------3--3-|--3----------3--3---3-------8--8|

G|---------------------------------------------|---------------------------------------------|
D|---------------------------------------------|---------------------------------------------|
A|------------------------6---6-6---6-6---6-6-5|------------------------6---6-6---6-6/-------|
E|8---8-8---8-8---8-8-10-----------------------|8---8-8---8-8---8-8-10-----------------------|


[Outro] 03:18
G|--------------------------------|--------------------------------|
D|--------------------------------|--------------------------------|
A|---------8--8---8-6--6---6------|----6--6---6----------6--8------| (x3)
E|8--8---8-------------------3--3-|--3----------3--3---3-------8--8|

G|--------------------------------|--------------------------------|
D|--------------------------------|--------------------------------|
A|---------8--8---8-6--6---6------|----6--6---6----------6--8------|
E|8--8---8-------------------3--3-|--3----------3--3---3-------8---|



************************************

| /   Slide up

************************************
Комментарии
0.0325 s, 0.74MB