Тональность0+
Шрифт0
Комментарии: 0
Автопрокрутка

Eggstone - Wrong Heaven

Оцените подбор:
0
оценок: 0
16
Добавить в избранное

Аккорды в подборе
Скрыть
[Intro]
(00:09)
G|-14---------14-|-12------------|-11-------11-|-9-------------|
D|----12-12------|-----10-10-----|----9-9------|----7-7--7-9-7-|
A|---------------|---------------|-------------|---------------|
E|---------------|---------------|-------------|---------------|

G|------------|------------|------------|------------|
D|------------|------------|------------|------------|
A|-5-----5-5--|------------|-5-----5-5--|------------|
E|-----5------|-3---3--3-5-|-----5------|-3---3--3-5-|

G|-------------|-------------|--------------|------------|
D|-------------|-------------|--------------|-2----------|
A|-5-----5-5---|-------------|--------------|-----0-4-0--|
E|-----5------5|-3---3--3-5-3|-2---0-2-2-2-2|------------|

[Verse 1]
G|------------|------------|------------|------------|
D|------------|------------|------------|-----5------|
A|-5-----5-5--|------------|-5-----5-5--|------------|
E|-----5------|-3---3--3-5-|-----5------|-3------3-5-|

G|------------|------------|------------|------------|
D|------------|------------|------------|-----5--5---|
A|-5-----5-5--|------------|-5-----5-5--|------------|
E|-----5------|-3---3--3-5-|-----5------|-3--------3-|

[Pre-Chorus]
G|------------|------------|------------|------------|
D|------------|------------|------------|-----5--5---|
A|-5-----5-5--|------------|-5-----5-5--|------------|
E|-----5------|-3---3--3-5-|-----5------|-3--------3-|

G|------------|------------|------------|---------------|
D|------------|------------|------------|---------------|
A|-5-----5-5--|------------|-5-----5-5--|-----0-0-2-2-4-|
E|-----5------|-3---3--3-5-|-----5------|-3-3-----------|

[Chorus]
G|--------------|--------------| x2 
D|--------------|--------------|
A|-5-----5-5----|--------------|
E|-----5-----5-5|-3---3-3-3-5-3|

G|--------------|----------------|------------|---------------|
D|--------------|-------5-5-5/7-5|-4---4-4-5-7|--------7--7-7-|
A|-5-----5-5----|----------------|------------|-7--7-7--------|
E|-----5-----5-5|-3---3----------|------------|---------------|

[Interlude]
G|------------|------------|------------|--------------|
D|------------|------------|------------|-----5--5-5/7-|
A|-5-----5-5--|------------|-5-----5-5--|--------------|
E|-----5------|-3---3--3-5-|-----5------|-3------------| 

[Verse 2]
G|------------|------------|------------|------------|
D|------------|------------|------------|-----5--5---|
A|-5-----5-5--|------------|-5-----5-5--|------------|
E|-----5------|-3---3--3-5-|-----5------|-3--------3-|

G|------------|------------|-------------|------------|
D|------------|------------|-------------|------------|
A|-5-----5-5--|------------|-5-----5-5--\|------------|
E|-----5------|-3---3--3-5-|-----5-------|-3---3--3-5-|

[Pre-Chorus]
G|------------|------------|------------|------------|
D|------------|------------|------------|------------|
A|-5-----5-5--|------------|-5-----5-5--|------------|
E|-----5------|-3---3--3-5-|-----5------|-3---3--3-5-|

G|-------------|------------|-------------|---------------|
D|-------------|------------|-------------|---------------|
A|-5-----5-5---|------------|-5-----5-5---|-----0-0-2-2-4-|
E|-----5------5|-3---3--3-5-|-----5------5|-3-3-----------|

[Chorus]
G|--------------|--------------| 
D|--------------|--------------|
A|-5-----5-5----|--------------|
E|-----5-----5-5|-3---3-3-3-5-3|

G|--------------|-------------| 
D|--------------|-------------|
A|-5-----5-5-5--|-------------|
E|-----5-------5|-3---3-3-3-5-|

G|--------------|--------------|------------|--------------|
D|--------------|-------5-5-5-5|-4---4-4-5-7|--------------|
A|-5-----5-5----|--------------|------------|-7--7-7-0---0-|
E|-----5-----5-0|-3---3--------|------------|--------------|

[Bridge]
G|-9/10|
D|-----|
A|-----|
E|-----|

(02:17 ~ 02:30 - No Bass)

(02:31)
G|----------1)-3--|----x-1------|----------1)-3--|----x-3/5--3-5-\|
D|----x--(3-------|-3-------1--3|----x--(3-------|-3--------------|
A|-1--------------|-------------|-1--------------|----------------|
E|----------------|-------------|----------------|----------------|

G|----------1)-3--|----x-1-----|--------------|---------------|
D|----x--(3-------|-3-------1--|--------------|-------5-7---7-|
A|-1--------------|------------|-1--x---1---1-|-0-6-7-----7---|
E|----------------|------------|------1---1---|---------------|

[Chorus]
G|-------------|--------------| 
D|-------------|--------------|
A|-5-----5-5---|--------------|
E|-----5-----5-|-3---3-3-3-5-5|

G|--------------|--------------| 
D|--------------|--------------|
A|-5-----5---5--|--------------|
E|-----5---5---5|-3---3-3-3-5-5|

G|--------------|-------------|------------|-------------|
D|--------------|-------------|------------|-------------|
A|-5-----5---5--|-------------|------------|-------------|
E|-----5---5---5|-3---3-3-5-3-|-2---2-2-3-5|-0---5--5-7-5|

G|--------------|--------------| 
D|--------------|--------------|
A|-5-----5---5--|--------------|
E|-----5---5---5|-3---3-3-3-5-5| 

G|--------------|--------------| 
D|--------------|--------------|
A|-5-----5---5--|--------------|
E|-----5---5---5|-3---3-3-3-5-3| 

G|--------------|-------------|------------|----------------|
D|---------7-7-7|-5---5--5-5-5|-4---4-4-5-7|--------7--7-/9-|
A|-5---0-5------|-------------|------------|-7--7-7---------|
E|--------------|-------------|------------|----------------|

[Outro]
G|---------2-4|---------------|---------2-4|------------|
D|-0---0-4----|---------------|-0---0-4----|------------|
A|------------|-2--0-----0-4-0|------------|-2--0--3----|
E|------------|-------3-------|------------|----------3-|

G|------------2-4|---------------|---------2-4|------------| x3 
D|-0--0-0-0-4----|---------------|-0---0-4----|------------|
A|---------------|-2--0-----0-4-0|------------|-2--0--3----|
E|---------------|-------3-------|------------|----------3-|


************************************

| / Slide up 
| \ Slide down 
| x Dead note 
| (n-n) Fast 

************************************
Комментарии
0.0319 s, 0.74MB