Dwarves - Relentless

Тональность
-0+
Оцените подбор:
0
оценок: 0
11
Добавить в избранное

Автопрокрутка
Аккорды в подборе
Скрыть
[Intro]
G|--------------------------------------------------|
D|--------------------------------------------------|
A|--------------------------------------------------|
E|-5-5-----------5-5-----------5-5----------1---3---|

[Verse]
("Bigger Than Jesus Christ, Pimp Like Heidi Fleiss...")
G|----------------------------------|-----------------------------------|
D|----------------------------------|-----------------------------------|
A|-3-3-3-3-3-3-3-3--3-3-3-3-3-3-3-3-|-3-3-3-3-3-3-3-3--6-6-6-6--1-1-1-1-|
E|----------------------------------|-----------------------------------|

("Burn Like The Sun, Godzilla The Hun...")
G|----------------------------------|-----------------------------------|
D|----------------------------------|-----------------------------------|
A|-3-3-3-3-3-3-3-3--3-3-3-3-3-3-3-3-|-3-3-3-3-3-3-3-3--6-6-6-6--1-1-1-1-|
E|----------------------------------|-----------------------------------|

[Chorus]
("Relentless, Relentless Relentless...")
G|--------------------------------------------------|
D|--------------------------------------------------|
A|--------------------------------------------------|
E|-5-5-----------5-5-----------5-5----------1---3---|

("Relentless, Relentless Relentless...")
G|--------------------------------------------------|
D|--------------------------------------------------|
A|--------5--3----------5--3----------5--3----------|
E|-5-5--5--------5-5--5--------5-5--5-------1---3---|

[Verse]
("Hammered Lock And Load...")
G|----------------------------------|-----------------------------------|
D|----------------------------------|-----------------------------------|
A|-3-3-3-3-3-3-3-3--3-3-3-3-3-3-3-3-|-3-3-3-3-3-3-3-3--6-6-6-6--1-1-1-1-|
E|----------------------------------|-----------------------------------|

G|----------------------------------|-----------------------------------|
D|----------------------------------|-----------------------------------|
A|-3-3-3-3-3-3-3-3--3-3-3-3-3-3-3-3-|-3-3-3-3-3-3-3-3--6-6-6-6--1-1-1-1-|
E|----------------------------------|-----------------------------------|

("Thrown Away Now You're Blown Away...")
G|----------------------------------|----------------------------------|
D|----------------------------------|----------------------------------|
A|----------------------------------|----------------------------------|
E|-1-1-1-1-1-1-1-1--1-1-1-1-1-1-1-1-|-3-3-3-3-3-3-3-3--4-4-4-4-4-4-4-4-|

[Chorus]
("Relentless, Relentless Relentless...")
G|-------------------------------------------------------|
D|-------------------------------------------------------|
A|-------------------------------------------------------|
E|-5-5-----------5-5-----------5-5----------5-5----------|

("Relentless, Relentless Relentless...")
G|--------------------------------------------------------|
D|--------------------------------------------------------|
A|--------5--3----------5--3----------5--3---------5--3---|
E|-5-5--5--------5-5--5--------5-5--5-------5-5--5--------|

[Solo]
G|----------------------------------|-----------------------------------|
D|----------------------------------|-----------------------------------|
A|-5-5-5-5-5-5-5-5--5-5-5-5-5-5-5-5-|-5-5-5-5-5-5-5-5--8-8-8-8--3-3-3-3-|
E|----------------------------------|-----------------------------------|

G|----------------------------------|-----------------------------------|
D|----------------------------------|-----------------------------------|
A|-5-5-5-5-5-5-5-5--5-5-5-5-5-5-5-5-|-5-5-5-5-5-5-5-5--8-8-8-8--3-3-3-3-|
E|----------------------------------|-----------------------------------|

[Bridge]
("We Are The Dead Kids, We Are The Dead Kids...")
G|----------------------------------|----------------------------------|
D|----------------------------------|----------------------------------|
A|----------------------------------|----------------------------------|
E|-1-1-1-1-1-1-1-1--1-1-1-1-1-1-1-1-|-1-1-1-1-1-1-1-1--1-1-1-1-1-1-1-1-|

("We Are The Dead Kids, We Are The Dead Kids...")
G|----------------------------------|----------------------------------|
D|----------------------------------|----------------------------------|
A|----------------------------------|----------------------------------|
E|-1-1-1-1-1-1-1-1--1-1-1-1-1-1-1-1-|-1-1-1-1-1-1-1-1--1-1-1-1-1-1-1-1-|

("We Are The Dead Kids, We Are The Dead Kids...")
G|----------------------------------|----------------------------------|
D|----------------------------------|----------------------------------|
A|----------------------------------|----------------------------------|
E|-1-1-1-1-1-1-1-1--1-1-1-1-1-1-1-1-|-1-1-1-1-1-1-1-1--1-1-1-1-1-1-1-1-|

("We Are The Dead Kids, We Are The Dead Kids...")
G|----------------------------------|----------------------------------|
D|----------------------------------|----------------------------------|
A|----------------------------------|----------------------------------|
E|-1-1-1-1-1-1-1-1--1-1-1-1-1-1-1-1-|-1-1-1-1-1-1-1-1--1-1-1-1-1-1-1-1-|

("We Are The Dead Kids, We Are The Dead Kids...")
G|----------------------------------|----------------------------------|
D|----------------------------------|----------------------------------|
A|----------------------------------|----------------------------------|
E|-1-1-1-1-1-1-1-1--1-1-1-1-1-1-1-1-|-1-1-1-1-1-1-1-1--1-1-1-1-1-1-1-1-|

[Outro]
("Relentless, Relentless Relentless...")
G|-----------------------------|-----------------------------|------------------------------------------|
D|-----------------------------|-----------------------------|--------5-3----------5-3----------5-3-----|
A|--------5--3----------5--3---|--------8--6----------8--6---|-5-5--5-------5-5--5-------5-5--5-------5-|
E|-5-5--5--------5-5--5--------|-8-8--8--------8-8--8--------|------------------------------------------|
Смотрите также

Комментарии к аккордам Dwarves - Relentless

comments powered by HyperComments
0.0072 s, 0.71MB