Тональность0+
Шрифт0
Комментарии: 0
Автопрокрутка

Drake Milligan - She, аккорды

    	    	SONG:   SHE
ARTIST: DRAKE MILLIGAN
VIDEO:  https://youtu.be/nqfY0G8J7l4
TAB BY: DON CZARSKI
EMAIL:  GUITARZAN7@HOTMAIL.COM

                          SHE
                        MILLIGAN

CAPO: 4th FRET

INTRO:
   A   E  A     E   A   E  A     E
E ---0------------|---0------------|
B -2---0--------0-|-2---0--------0-|
G --------2-2-2---|--------2-2-2---|
D ----------------|----------------|
A ----------------|----------------|
E ----------------|----------------|


VERSE:
 A                        Bm7
She takes a shine to the stars
     E
The way that she sparkles
 E
Burns up the night
    Bm7           E             A
The way that she lights up the dark

 A                       Bm7
She's like a diamond, I swear
E
So down to earth
                  E7
And perfect down deep
Bm7        E      A
So completely unaware


CHORUS:
 D
She walks in a room
                           A
And turns every head on a dime
 D
She'd be somethin' to lose
       B            B7          E
She's nothin' like you'll ever find

      Bm7        E7       Bm7        E
She's so beautifully beatiful as can be
    Bm7          E          A
And  I can't believe she's mine

   A   E  A     E
E ---0------------|
B -2---0--------0-|
G --------2-2-2---|
D ----------------|
A ----------------|
E ----------------|


VERSE:
    A                  Bm7
And I know that little look
 E
She says it all
                  E7
Without sayin' a word
Bm7          E          A
 I can read her like a book

     A                        Bm7
And time just seems to stand still
      E
With her in my arms
 E
Nothin' could touch
Bm7            E      A
All that ever was or will


CHORUS:
     D
And she walks in a room
                           A
And turns every head on a dime
 D
She'd be somethin' to lose
       B            B7          E
She's nothin' like you'll ever find

      Bm7        E7       Bm7        E
She's so beautifully beatiful as can be
    Bm7          E          A
And  I can't believe she's mine

   A   E  A     E
E ---0------------|
B -2---0--------0-|
G --------2-2-2---|
D ----------------|
A ----------------|
E ----------------|


OUTRO:
   Bm7          E7        Bm7         E
Oh, I wish that she could see what I see
Bm          E          A
I can't believe she's mine

   A   E  A     E   A   E  A     E  A
E ---0------------|---0---------------|
B -2---0--------0-|-2---0--------0----|
G --------2-2-2---|--------2-2-2----2-|
D ----------------|-------------------|
A ----------------|-------------------|
E ----------------|-------------------|
                   Hmmm mmm mmmmmmmmmm		
    
Аккорды в подборе (аппликатуры)
Скрыть
A Варианты E Варианты Bm7 Варианты E7 Варианты D Варианты B Варианты B7 Варианты Bm Варианты
Оцените подбор:
0
оценок: 0
7
Добавить в избранное

Каким боем играть песню Drake Milligan - She? Голосуй!
Виды гитарного боя и как их играть
  • Хотите поделиться видео разбором песни или кавером?
  • Подобрали альтернативную версию песни (например, проще, без баррэ)?
  • Хотите узнать, как играют эту песню, какой бой?
Видео песни Drake Milligan - She
Комментарии
0.4934 s, 0.81MB