Тональность0+
Шрифт0
Комментарии: 0
Автопрокрутка

Charlie Worsham - Kiss Like You Dance, аккорды

    	    	Вступление

SONG:   KISS LIKE YOU DANCE
ARTIST: CHARLIE WORSHAM ft. KIP MOORE
VIDEO:  https://youtube.com/watch?v=m_6fcwfChDw&si=tslztB1ECbztDvq7
TAB BY: DON CZARSKI
EMAIL:  [email protected]


                            KISS LIKE YOU DANCE
                       CHARLIE WORSHAM ft. KIP MOORE

[Intro]
   D                       D
E -2b-5-2-----|------------2-|
B --------5-3-|----3-------3-|
G ------------|-5b---5-3---2-|
D ------------|----------5-0-|
A ------------|--------------|
E ------------|--------------|


[Verse]
 D
Rain drops tappin’ on a tin roof

Droppin’ us a backbeat goin’ all night
 G
Paper cups, line em up, pour em out
             D
Turn 'em all up in the neon light

          D
A little fast as you, little workin’ man blues

Like a light bulb switchin’ you on
     G
You close your eyes and you let them lips
     D
Get lost singin’ way back songs


[Chorus]
D                        G
I bet you kiss like you dance
                      D
I bet you get out of hand

In the middle of a crowd downtown
       A
Don’t care if no one’s watchin’

D                         G
 I bet you rock like you roll
                          D
Slide them Luccheses too close
                      A
How 'bout you let me let you

D
I bet you kiss like you dance

   D                       D
E -2b-5-2-----|------------2-|
B --------5-3-|----3-------3-|
G ------------|-5b---5-3---2-|
D ------------|----------5-0-|
A ------------|--------------|
E ------------|--------------|


[Verse]
 D
Hangin’ every bit of that crazy high

While your boots go right, left, right
 G
Swayin’ like dice in a rearview
           D               C
Hips just keepin’ me hypnotized

 D
Keep on movin’, baby, make me tipsy

Spin me around like a vinyl gypsy


[Chorus]
D                        G
I bet you kiss like you dance
                      D
I bet you get out of hand

In the middle of a crowd downtown
       A
Don’t care if no one’s watchin’

D                        G
I bet you rock like you roll
                          D
Slide them Luccheses too close
               A
How 'bout you let me let you

D
I bet you kiss like you dance
     D
Our dance


[Instrumental]
D   D   A  A
D  Bb  G  D

   D                       Dm    G  D
E -2b-5-2-----|------------1-|
B --------5-3-|----3-------3-|
G ------------|-5b---5-3---2-|
D ------------|----------5-0-|
A ------------|--------------|
E ------------|--------------|

Dm    D  A
Dm    G  D
D  A  D


[Break]
 D
Looks like you could do this all night long (Baby all night long)
 D
Wouldn't even know it if the lights came on (lights came on)


[Chorus]
D                        G
I bet you kiss like you dance
                      D
I bet you get out of hand

In the middle of a crowd downtown
       A
Don’t care if no one’s watchin’

D                        G
I bet you rock like you roll
                          D
Slide them Luccheses too close
               A
How 'bout you let me let you

D
I bet you kiss like you dance

   D                       D
E -2b-5-2-----|------------2-|
B --------5-3-|----3-------3-|
G ------------|-5b---5-3---2-|
D ------------|----------5-0-|
A ------------|--------------|
E ------------|--------------|
               Last dance


[Outro]
 D
Bet you kiss like you dance girl

   D                       D
E -2b-5-2-----|------------2-|
B --------5-3-|----3-------3-|
G ------------|-5b---5-3---2-|
D ------------|----------5-0-|
A ------------|--------------|
E ------------|--------------|

 D       Bb        A   D
Bet you kiss like you dance		
    

Аккорды в подборе (аппликатуры)
Скрыть
D Варианты G Варианты A Варианты C Варианты Bb Варианты Dm Варианты
Оцените подбор:
0
оценок: 0
40
0
Каким боем играть песню Charlie Worsham - Kiss Like You Dance? Голосуй!
Виды гитарного боя и как их играть
Видео песни Charlie Worsham - Kiss Like You Dance
Комментарии
0.0638 s, 3.92MB, p