Тональность0+
Шрифт0
Комментарии: 0
Автопрокрутка

Bruce Springsteen - Janey Dont You Lose Heart

Оцените подбор:
0
оценок: 0
9
Добавить в избранное

Аккорды в подборе
Скрыть
JANEY, DON'T YOU LOSE HEART (Bassline)
As recorded by Bruce Springsteen
(From the 1985 Album TRACKS)

Words and Music by Bruce Springsteen
Transcribed by Slowhand

Gtr I (E A D G) - 'Garry Tallent - Bass'

  [Intro]
  Q=144
  4/4
   Gtr I
   H    E E E E   H    E E E E   H    E E E E   Q.   E E E Q
G|--------------|--------------|--------------|----------------|
D|-7------------|-7----------6-|--------------|----------------|
A|------7-7-9-7-|------7-7-9---|-7------------|-7----7-7-9-7---|
E|--------------|--------------|------7-7-9-7-|----------------|


   H    E E E E   H    E E E E   H    E E E E   Q.   E E E E E
G|--------------|--------------|--------------|-----------------||
D|-7------------|-7----------6-|--------------|-----------------||
A|------7-7-9-7-|------7-7-9---|-7----7-7-6-4-|-----------------||
E|--------------|--------------|--------------|-7----7-7-7-9-7--||


   [1st - 3rd Verses]
   Segno $
     H    E E E E   Q.   E E E E E   H    E E E E   Q.   E Q  E E
G||---------------|----------------|--------------|---------------|
D||o--------------|----------------|-7------------|-7----7-7--6---|
A||o-7------------|-7----7-7-7-9-7-|------7-7-9-7-|-------------9-|
E||-------7-7-9-7-|----------------|--------------|---------------|


   Q.   E E E E E   H    E Q  E   H    E E E E   H    Q  Q
G|----------------|-------------|-6------------|-6----6------|
D|----------------|-------------|------6-6-7-6-|---------9---|
A|-7----7---------|-7----7-7--9-|--------------|-------------|
E|--------7-7-9-7-|-------------|--------------|-------------|


   H    E E E E   Q.   E E E E E   H    E E  E E   H    Q  Q
G|--------------|----------------|---------------|-------------|
D|-7------------|-7------7-7-6-7-|-9-------------|-9----9--9---|
A|------7-7-9-7-|------7---------|------9-9-11-9-|-------------|
E|--------------|----------------|---------------|-------------|


                                                            To Coda
   H    E E E E   Q.   E E E E E   Q.   E E E  E E   Q.   E E  E Q
G|--------------|----------------|-----------------|-----------------||
D|-7------------|-7------7-7-6-7-|-9----9----------|-9----9-9-11-9---||
A|------7-7-9-7-|------7---------|--------9-9-11-9-|-----------------||
E|--------------|----------------|-----------------|-----------------||


  [Chorus]
   H    E E E E   H    E E E E   H    E E E E   Q.   E E E Q
G|--------------|--------------|--------------|----------------|
D|-7--------7---|-7----7-7-6-4-|--------------|----------------|
A|------7-7---7-|--------------|-7------------|-7----7-7-9-7---|
E|--------------|--------------|------7-7-9-7-|----------------|


   H    E E E E   H    E E E E   H    E E E E   Q.   E E E E E
G|--------------|--------------|--------------|------------------||
D|-7--------7---|-7----7-7-6-4-|--------------|-----------------o||
A|------7-7---7-|--------------|-7----7-7-6-4-|-----------------o||
E|--------------|--------------|--------------|-7----7-7-7-9-7---||


  [Sax Solo]
   H    E E E E   Q.   E E E E E   H    E E E E   Q.   E Q  E E
G|--------------|----------------|--------------|----------------|
D|--------------|----------------|-7------------|-7----7-7--6----|
A|-7------------|-7----7-7-7-9-7-|------7-7-9-7-|-------------9--|
E|------7-7-9-7-|----------------|--------------|----------------|


   Q.   E E E E E   H    E Q  E   H    E E E E   H    Q  Q
G|----------------|-------------|-6------------|-6----6------|
D|----------------|-------------|------6-6-7-6-|---------9---|
A|-7----7---------|-7----7-7--9-|--------------|-------------|
E|--------7-7-9-7-|-------------|--------------|-------------|


   H    E E E E   Q.   E E E E E   H    E E  E E   H    Q  Q
G|--------------|----------------|---------------|-------------|
D|-7------------|-7------7-7-6-7-|-9-------------|-9----9--9---|
A|------7-7-9-7-|------7---------|------9-9-11-9-|-------------|
E|--------------|----------------|---------------|-------------|


                                                    Dal Segno al Coda
   H    E E E E   Q.   E E E E E   Q.   E E E  E E   Q.   E E  E Q
G|--------------|----------------|-----------------|-----------------||
D|-7------------|-7------7-7-6-7-|-9----9----------|-9----9-9-11-9---||
A|------7-7-9-7-|------7---------|--------9-9-11-9-|-----------------||
E|--------------|----------------|-----------------|-----------------||


   [Out-Chorus]
   Coda &
     H    E E E E   H    E E E E   H    E E E E   Q.   E E E Q
G||---------------|--------------|--------------|---------------|
D||o-7--------7---|-7----7-7-6-4-|--------------|---------------|
A||o------7-7---7-|--------------|-7------------|-7----7-7-9-7--|
E||---------------|--------------|------7-7-9-7-|---------------|


   H    E E E E   H    E E E E   H    E E E E   Q.   E E E E E   4x
G|--------------|--------------|--------------|------------------||
D|-7--------7---|-7----7-7-6-4-|--------------|-----------------o||
A|------7-7---7-|--------------|-7----7-7-6-4-|-----------------o||
E|--------------|--------------|--------------|-7----7-7-7-9-7---||

[Lyrics]
You got your book baby with all your fears
Let me, honey, and I'll catch your tears
I'll take your sorrow if you want me to
Come tomorrow that's what I'll do
Listen to me

Janey don't you lose heart
Janey don't you lose heart
Janey don't you lose heart
Janey don't you lose heart

Well you say you got no new dreams to touch
You feel like a stranger babe who knows too much*
Well you come home late and get undressed
You lie in bed, feel this emptiness
Well listen to me

Janey don't you lose heart
Janey don't you lose heart
Janey don't you lose heart
Janey don't you lose heart

'Til every river runs dry**
Until the sun honey's torn from the sky**
'Til every fear you've felt burst free
And gone tumblin' down into the sea
Listen to me

Janey don't you lose heart
Janey don't you lose heart
Janey don't you lose heart
Janey don't you lose heart 

************************************
Duration Legend

W - whole; H - half; Q - quarter; E - 8th; S - 16th; a - acciaccatura; 
+ - note tied to previous; . - note dotted;
Duration letters will always appear directly above the note/fret number it represents the
duration for.  Duration letters with no fret number below them represent rests.
Uncapitalized letters represent notes that are staccato (1/2 duration). 
************************************
Комментарии
0.0126 s, 0.73MB