Тональность0+
Шрифт0
Комментарии: 0
Автопрокрутка

Broken City Sky - Ill Make A Man Out Of You

Оцените подбор:
0
оценок: 0
7
Добавить в избранное

Аккорды в подборе
Скрыть
Drop C tuning

[Verse]

D|-------------------------|-------------------------|
A|-------------------------|-------------------------|
F|---------------7-7--7----|---------------7-7--7-9--|
C|-4-4--6-7-7-7--7-7--7-2--|-4-4--6-7-7-7--7-7--7-9--|
G|-4-4--6-7-7-7--5-5--5-2--|-4-4--6-7-7-7--5-5--5-7--|
C|-4-4--6-7-7-7---------2--|-4-4--6-7-7-7------------|


[Chorus]

D|-------------------------------------------------------------|
A|-------------------------------------------------------------|
F|-7-7-7-7-7-7-7-9-9-9-9-9-9-9-9-------------------------------|
C|-7-7-7-7-7-7-7-9-9-9-9-9-9-9-9-7-7-7-7-7-7-6-4-4-4-4-4-4-4-4-|
G|-5-5-5-5-5-5-5-7-7-7-7-7-7-7-7-7-7-7-7-7-7-6-4-4-4-4-4-4-4-4-|
C|-------------------------------7-7-7-7-7-7-6-4-4-4-4-4-4-4-4-|
pm . .   . .   .   . .   . . .   . .   . .       . .   . . .    

D|-----------------------------------------------|
A|-----------------------------------------------|
F|-7-7-7-7-7-7-7-9-9-9-9-9-9-9-9-----------------|
C|-7-7-7-7-7-7-7-9-9-9-9-9-9-9-9-----------------|
G|-5-5-5-5-5-5-5-7-7-7-7-7-7-7-7-----------------|
C|-------------------------------4~-7-7-7-7-0-2--|
pm . .   . .   .   . .   . . .   

[Verse]

D|-------------------------|-------------------------|
A|-------------------------|-------------------------|
F|---------------7-7--7----|---------------7-7--7-9--|
C|-4-4--6-7-7-7--7-7--7-2--|-4-4--6-7-7-7--7-7--7-9--|
G|-4-4--6-7-7-7--5-5--5-2--|-4-4--6-7-7-7--5-5--5-7--|
C|-4-4--6-7-7-7---------2--|-4-4--6-7-7-7------------|


[Chorus]

D|-------------------------------------------------------------|
A|-------------------------------------------------------------|
F|-7-7-7-7-7-7-7-9-9-9-9-9-9-9-9-------------------------------|
C|-7-7-7-7-7-7-7-9-9-9-9-9-9-9-9-7-7-7-7-7-7-6-4-4-4-4-4-4-4-4-|
G|-5-5-5-5-5-5-5-7-7-7-7-7-7-7-7-7-7-7-7-7-7-6-4-4-4-4-4-4-4-4-|
C|-------------------------------7-7-7-7-7-7-6-4-4-4-4-4-4-4-4-|
pm . .   . .   .   . .   . . .   . .   . .       . .   . . .    

D|-----------------------------------------------|
A|-----------------------------------------------|
F|-7-7-7-7-7-7-7-9-9-9-9-9-9-9-9-----------------|
C|-7-7-7-7-7-7-7-9-9-9-9-9-9-9-9-----------------|
G|-5-5-5-5-5-5-5-7-7-7-7-7-7-7-7-----------------|
C|-------------------------------4~-7-7-7-7-0-2--|
pm . .   . .   .   . .   . . .   

[Bridge]

D|-------------------------------------------------|
A|-------------------------------------------------|
F|-------------------------------------------------|
C|-------------------------------------------------|
G|-------------4-4-4-------------------------------|
C|-4-4-4-6-6-6-------7-7-7-9-9-9-2-2-2-0-0-0-0-0-0-|

D|---------------------------------------------------|
A|---------------------------------------------------|
F|---------------------------------------------------|
C|---------------------------------------------------|
G|-------------4-4-4---------------------------------|
C|-4-4-4-6-6-6-------7-7-7-9-9-9-2-2-2-0-0-0-0-0-0-0-|


[Chorus]

D|-----------------------------------------------------------------------|
A|-----------------------------------------------------------------------|
F|-7-7-7-7-9-9-9-11-11-11-11-11-11-11-7-7-7-7-9-9-9-11-11-11-11-11-11-11-|
C|-7-7-7-7-9-9-9-11-11-11-11-11-11-11-7-7-7-7-9-9-9-11-11-11-11-11-11-11-|
A|-5-5-5-5-7-7-7--9--9--9--9--9--9--9-5-5-5-5-7-7-7--9--9--9--9--9--9--9-|
C|-----------------------------------------------------------------------|

D|-----------------------------------------------------------------------------|
A|-----------------------------------------------------------------------------|
F|-7-7-7-7-9-9-9-11-11-11-11-11-11-7-7-7-7-7-7-7-7-9-9-9-9-9-9-9-9-------------|
C|-7-7-7-7-9-9-9-11-11-11-11-11-11-7-7-7-7-7-7-7-7-9-9-9-9-9-9-9-9-------------|
A|-5-5-5-5-7-7-7-12-12-12--9--9--9-5-5-5-5-5-5-5-5-7-7-7-7-7-7-7-7-------------|
C|-----------------------------------------------------------------4-4-4-0-2-4-|


[Verse]

D|------------------------------------------------------------------|
A|------------------------------------------------------------------|
F|-----------------8-8-x-x-x-x-8-------------------8-8-x-x-x-x-8-10-|
C|-5-5--7-8-8-8-8--8-8-x-x-x-x-8-3--5-5--7-8-8-8-8-8-8-x-x-x-x-8-10-|
G|-5-5--7-8-8-8-8--6-6-x-x-x-x-6-3--5-5--7-8-8-8-8-6-6-x-x-x-x-6--8-|
C|-5-5--7-8-8-8-8----------------3--5-5--7-8-8-8-8------------------|


[Chorus]

D|---------------------------------------------------------------------|
A|---------------------------------------------------------------------|
F|-8-8-8-8-8-8-8-10-10-10-10-10-10-10-10-------------------------------|
C|-8-8-8-8-8-8-8-10-10-10-10-10-10-10-10-8-8-8-8-8-8-7-5-5-5-5-5-5-5-5-|
G|-6-6-6-6-6-6-6--8--8--8--8--8--8--8--8-8-8-8-8-8-8-7-5-5-5-5-5-5-5-5-|
C|---------------------------------------8-8-8-8-8-8-7-5-5-5-5-5-5-5-5-|
pm . .   . .   .     .  .     .  .  .    . .   . .       . .   . . .    

D|-----------------------------------------------------|
A|-----------------------------------------------------|
F|-8-8-8-8-8-8-8-10-10-10-10-10-10-10-10---------------|
C|-8-8-8-8-8-8-8-10-10-10-10-10-10-10-10---------------|
G|-6-6-6-6-6-6-6--8--8--8--8--8--8--8--8---------------|
C|----------------------------------------5~-8-8-8-1-3-|
pm . .   . .   .     .  .     .  .  . 

[Chorus]

D|-----------------------------------------------------------------------------|
A|-----------------------------------------------------------------------------|
F|-8-8-8-8-10-10-10-12-12-12-12-12-12-12-8-8-8-8-10-10-10-12-12-12-12-12-12-12-|
C|-8-8-8-8-10-10-10-12-12-12-12-12-12-12-8-8-8-8-10-10-10-12-12-12-12-12-12-12-|
G|-6-6-6-6--8--8--8-10-10-10-10-10-10-10-6-6-6-6--8--8--8-10-10-10-10-10-10-10-|
C|-----------------------------------------------------------------------------|

D|-----------------------------------------------------------------------------------------|
A|-----------------------------------------------------------------------------------------|
F|-8-8-8-8-10-10-10-15-15-15-12-12-12-8-8-8-8-8-8-8-8-10-10-10-10-10-10-10-10--------------|
C|-8-8-8-8-10-10-10-15-15-15-12-12-12-8-8-8-8-8-8-8-8-10-10-10-10-10-10-10-10--------------|
G|-6-6-6-6--8--8--8-13-13-13-10-10-10-6-6-6-6-6-6-6-6--8--8--8--8--8--8--8--8--------------|
C|-----------------------------------------------------------------------------5-5-5-1-3-5-|


[Chorus]

D|-----------------------------------------------------------------------------|
A|-----------------------------------------------------------------------------|
F|-8-8-8-8-10-10-10-12-12-12-12-12-12-12-8-8-8-8-10-10-10-12-12-12-12-12-12-12-|
C|-8-8-8-8-10-10-10-12-12-12-12-12-12-12-8-8-8-8-10-10-10-12-12-12-12-12-12-12-|
G|-6-6-6-6--8--8--8-10-10-10-10-10-10-10-6-6-6-6--8--8--8-10-10-10-10-10-10-10-|
C|-----------------------------------------------------------------------------|

D|----------------------------------------------------------------------------|
A|----------------------------------------------------------------------------|
F|-8-8-8-8-10-10-10-15-15-15-12-12-12-8-8-8-8-8-8-8-8-10-10-10-10-10-10-10-10-|
C|-8-8-8-8-10-10-10-15-15-15-12-12-12-8-8-8-8-8-8-8-8-10-10-10-10-10-10-10-10-|
G|-6-6-6-6--8--8--8-13-13-13-10-10-10-6-6-6-6-6-6-6-6--8--8--8--8--8--8--8--8-|
C|----------------------------------------------------------------------------|


[Outro]

D|-------------------------------------------------------------|
A|-------------------------------------------------------------|
F|-------------------------------------------------------------|
C|-------------------------------------------------------------|
G|-------------------------------------------------------------|
C|-55-5-5-55-5-5-3--55555-5-5-8--55-5-5-55-5-5-3--55555-5-5-8--|
   ..     ..        ....         ..     ..        ....

D|-----------------------------------------------|
A|-----------------------------------------------|
F|-----------------------------------------------|
C|-----------------------------------------------|
G|-----------------------------------------------|
C|-55-5-5-55-5-5-3--55555-5-5-8--55-5-5-55-5-5-3-|
   ..     ..        ....         ..     ..


I haven't been able to figure out the last line, but the rest of it should be correct.


************************************

| x   Dead note
| PM  Palm mute

************************************
Комментарии
0.0417 s, 0.74MB