Тональность0+
Шрифт0
Комментарии: 0
Автопрокрутка

Big Thief - Velvet Ring

Оцените подбор:
0
оценок: 0
4
Добавить в избранное

Аккорды в подборе
Скрыть
I think live (she's only played it once live) she plays it an open tuning possibly with a capo, but 
you can play it in standard too and it sounds the same.

[Intro]
    G (Bar chord)            B             C
e|-----------------------------------------------------|
B|-------------3------------------0----------1--0------|
G|-------4-----------4----------4---4--------------0---| 
D|----5------5----5-----5------------------------------| (3x)
A|----------------------------2------------3-----------|
E|-3---------------------------------------------------|
     
e|-----------------------------------------------------|
B|-------0----------0--------0--------0----------------|
G|-----0---0------0---0----0---0----0---0--------------|
D|--4-----------3--------2--------1--------------------|
A|-----------------------------------------------------|
E|-----------------------------------------------------|
      
[Verse]
 
   G (Bar chord)            B             C
e|-----------------------------------------------------|
B|-------------3------------------0----------1--0------|
G|-------4-----------4----------4---4--------------0---| 
D|----5------5----5-----5------------------------------| (3x)
A|----------------------------2------------3-----------|          \
E|-3---------------------------------------------------|           \
    "Shoved in the kitchen of a city tomb.."                       (Play this 2x before chorus)
e|-----------------------------------------------------|           /
B|-------0----------0--------0--------0----------------|          /
G|-----0---0------0---0----0---0----0---0--------------|
D|--4-----------3--------2--------1--------------------|
A|-----------------------------------------------------|
E|-----------------------------------------------------|
    "Elize waited in her room.."

[Chorus]

e|------------------------------------------------------|
B|-2----3---------3----------3---------3----------------|
G|----0---0-----0---0------0---0-----0---0--------------|
D|------------------------------------------------------|
A|------------------------------------------------------|
E|-3---------3-----------3--------3---------------------|
     "Love is a gentle thing.."
e|------------------------------------------------------|
B|------3---------3----------3---------3----------------|
G|----0---0-----0---0------0---0-----0---0--------------|
D|-----------0------------------------------------------|
A|-3---------------------2--------3---------------------|
E|------------------------------------------------------|
     "Yours is thicker than a velvet ring.."
e|------------------------------------------------------|
B|------3---------3----------3--------------------------|
G|----0---0-----0---0------0---0------------------------|
D|-----------0------------------------------------------|
A|-3---------------------2------------------------------|
E|------------------------------------------------------|
    "Yours is thicker than a velvet ring.."
e|------------------------------------------------------|
B|------3---------3----------3---------3----------------|
G|----0---0-----0---0------0---0-----0---0--------------|
D|------------------------------------------------------|
A|-3---------3-----------3--------3---------------------|
E|------------------------------------------------------|


Then repeat, until the Outro, which is like 2 guitars so I'm too lazy to tab, bye.
Комментарии
0.0334 s, 0.73MB