Тональность0+
Шрифт0
Комментарии: 0
Автопрокрутка

ANTILOPEN GANG - Pizza Mit Bela B

Оцените подбор:
0
оценок: 0
5
Добавить в избранное

Аккорды в подборе
Скрыть
[Intro]

[Verse 1]

[...]
Welt zerfällt überall ...   Die Pole schmelzen...     Das ist echt verrückt...  Ah Yeah, Wir alle ....  
G|-------------------------|-------------------------|-------------------------|-------------------------|
D|-------------------------|-------------------------|-------------------------|-------------------------|
A|---1-0-------------------|---1-0-------------------|---1-5-------------------|---1---------------------|
D|1--------5------5---5-3--|1--------5------5---5-3--|1--------5------5---5-3--|1--------3---------------|


[Pre-Chorus]

Es klingelt a der...        mit dem dampfendem...     Die heilige Scheibe...    Die Weisheit der...
G|-------------------------|-------------------------|-------------------------|-------------------------|
D|-------------------------|-------------------------|-------------------------|-------------------------|
A|3-3-3-3-3-3-3-3-3-3-3-3-5|6-6-6-6-6-6-6-6-6-6-6-6-6|5-5-5-5-5-5-5-5-5-5-5-5-5|5-5-5-5-5-5-5-5-5-5-5-5-5|
D|-------------------------|-------------------------|-------------------------|-------------------------|


[Chorus]

nur jetzt geschrammelt
G|-------------------------|-------------------------|-------------------------|-------------------------|
D|-------------------------|-------------------------|-------------------------|-------------------------|
A|---1-0-------------------|---1-0-------------------|---1-0-------------------|---1---------------------|
D|1--------5------5---5-3--|1--------5------5---5-3--|1--------5------5---5-3--|1--------3---------------|


[Verse 2]

Es geht nicht...            Hauptsache, Käse...       Auf jedem Kontinent...    Es geht von Tansania...
G|-------------------------|-------------------------|-------------------------|-------------------------|
D|-------------------------|-------------------------|-------------------------|-------------------------|
A|---1-0-------------------|---1-0-------------------|---1-5-------------------|---1---------------------|
D|1--------5------5---5-3--|1--------5------5---5-3--|1--------5------5---5-3--|1--------3---------------|

[Pre-Chorus]

In jeder Stadt...           Schreib die Parole...     Viva la Magaritha...      Feuer und Flamme...
G|-------------------------|-------------------------|-------------------------|-------------------------|
D|-------------------------|-------------------------|-------------------------|-------------------------|
A|3-3-3-3-3-3-3-3-3-3-3-3-5|6-6-6-6-6-6-6-6-6-6-6-6-6|5-5-5-5-5-5-5-5-5-5-5-5-5|5-5-5-5-5-5-5-5-5-5-5-5-5|
D|-------------------------|-------------------------|-------------------------|-------------------------|




[Chorus]

Schrammeln
G|-------------------------|-------------------------|-------------------------|-------------------------|
D|-------------------------|-------------------------|-------------------------|-------------------------|
A|---1-0-------------------|---1-0-------------------|---1-0-------------------|---1---------------------|
D|1--------5------5---5-3--|1--------5------5---5-3--|1--------5------5---5-3--|1--------3---------------|


[Bridge]
Schlagzeug solo


[Chorus]

Schrammeln
G|-------------------------|-------------------------|-------------------------|-------------------------|
D|-------------------------|-------------------------|-------------------------|-------------------------|
A|---1-0-------------------|---1-0-------------------|---1-0-------------------|---1---------------------|  
D|1--------5------5---5-3--|1--------5------5---5-3--|1--------5------5---5-3--|1--------3---------------|

[Chorus alt]
G|-------------------------|-------------------------|-------------------------|-------------------------|
D|-------------------------|-------------------------|-------------------------|-------------------------|
A|---4-3---1------1---1----|---4-3---1------1---1----|---4-3---1------1---1----|---4---------------------|  
D|4---------------------6--|4---------------------6--|4---------------------6--|4--------6---------------|
Комментарии
0.0360 s, 0.74MB