Тональность0+
Шрифт0
Комментарии: 0
Автопрокрутка

Afi - Get Hurt

Оцените подбор:
0
оценок: 0
11
Добавить в избранное

Аккорды в подборе
Скрыть
GET HURT
BY A FIRE INSIDE
STANDARD TUNING

INTRO
e|---------------------------------------------------------
b|-----------0-0-----0-----0-----0-0-0-0-0-0-0-0-0-0-0-0---
G|---------------2-2---2-2-------7-7-7-7-7-6-6-6-6-6-6-6---
D|-------------------------------7-7-7-7-7-7-7-7-7-7-7-7---
A|----0^2-2------------------------------------------------
E|---------------------------------------------------------

e|---------------------------------------------------------
b|-----------0-0-----0-----0-------------------------------
G|---------------2-2---2-2-------7-7-7-7-7-9-9-9-9-9-9-9---
D|-------------------------------7-7-7-7-7-x-x-x-x-x-x-x---
A|----0^2-2--------------------------------x-x-x-x-x-x-x---
E|-----------------------------------------0-0-0-0-0-0-0---

VERSE
e|---------------------------------------------------------
b|-----------0-0-----0-----0-----0-0-0-0-0-0-0-0-0-0-0-0---
G|---------------2-2---2-2-------7-7-7-7-7-6-6-6-6-6-6-6---
D|-------------------------------7-7-7-7-7-7-7-7-7-7-7-7---
A|----0^2-2------------------------------------------------
E|---------------------------------------------------------

e|---------------------------------------------------------
b|-----------0-0-----0-----0-----0-0-0-0-0-0---------------
G|---------------2-2---2-2-------7-7-7-7-7-6---------------
D|-------------------------------7-7-7-7-7-7---------------
A|----0^2-2------------------------------------------------
E|---------------------------------------------------------

e|---------------------------------------------------------
b|-----------0-0-----0-----0-----0-0-0-0-0-0-0-0-0-0-0-0---
G|---------------2-2---2-2-------7-7-7-7-7-6-6-6-6-6-6-6---
D|-------------------------------7-7-7-7-7-7-7-7-7-7-7-7---
A|----0^2-2------------------------------------------------
E|---------------------------------------------------------

e|---------------------------------------------------------
b|-----------0-0-----0-----0-------------------------------
G|---------------2-2---2-2-------7-7-7-7-7-9-9-9-9-9-9-9---
D|-------------------------------7-7-7-7-7-x-x-x-x-x-x-x---
A|----0^2-2--------------------------------x-x-x-x-x-x-x---
E|-----------------------------------------0-0-0-0-0-0-0---

PRE-CHORUS
E||------------------------------||-------------------------------
B||*----------------------------*||-------------------------------
G||--9-9-9-9-9-9-7-7-7-5-5-5-5---||-2-2-2-2-2-2---------5-5-5-5---
D||--9-9-9-9-9-9-7-7-7-5-5-5-5---||-2-2-2-2-2-2-5-5-5-X-5-5-5-5---
A||*-7-7-7-7-7-7-5-5-5-3-3-3-3--*||-0-0-0-0-0-0-2-2-2-X-3-3-3-3---
E||--0-0-0-0-0-0-5-5-5-3-3-3-3---||-------------------------------

CHORUS
e|------------------------------------------------------
b|------------------------------------------------------
G|-4-4-4-4-4-4-------------7-7-7-7-7-7-7-9-9-9-9-9-9-9--
D|-4-4-4-4-4-4-5-5-5-5-5-5-7-7-7-7-7-7-7-9-9-9-9-9-9-9--
A|-2-2-2-2-2-2-5-5-5-5-5-5-5-5-5-5-5-5-5-7-7-7-7-7-7-7--
E|-2-2-2-2-2-2-3-3-3-3-3-3-5-5-5-5-5-5-5-0-0-0-0-0-0-0--

e|------------------------------------------------------
b|------------------------------------------------------
G|-4-4-4-4-4-4-------------7-7-7-7-7-7-7-9-9-9-9-9-9-9--
D|-4-4-4-4-4-4-5-5-5-5-5-5-7-7-7-7-7-7-7-9-9-9-9-9-9-9--
A|-2-2-2-2-2-2-5-5-5-5-5-5-5-5-5-5-5-5-5-7-7-7-7-7-7-7--
E|-2-2-2-2-2-2-3-3-3-3-3-3-5-5-5-5-5-5-5-0-0-0-0-0-0-0--

e|---------------------------------------------------
b|---------------------------------------------------
G|-9-9-9-9-9-9-5-5-5-5-5-5--7-7-7-7-7-7-7-7-7-7-7-7--
D|-9-9-9-9-9-9-5-5-5-5-5-5--7-7-7-7-7-7-7-7-7-7-7-7--
A|-7-7-7-7-7-7-3-3-3-3-3-3--5-5-5-5-5-5-5-5-5-5-5-5--
E|-7-7-7-7-7-7-3-3-3-3-3-3--5-5-5-5-5-5-5-5-5-5-5-5--

e|--------------------------------------------------------
b|--------------------------------------------------------
G|-4-4-4-4-4-4-------------7-7-7-7-7-7-7-PM---------------
D|-4-4-4-4-4-4-5-5-5-5-5-5-7-7-7-7-7-7-7-===============--
A|-2-2-2-2-2-2-5-5-5-5-5-5-5-5-5-5-5-5-5-7-7-7-7-7-7-7-7--
E|-2-2-2-2-2-2-3-3-3-3-3-3-5-5-5-5-5-5-5-0-0-0-0-0-0-0-0--

e|---------------------------------------------------------
b|-----------0-0-----0-----0-----0-0-0-0-0-0-0-0-0-0-0-0---
G|---------------2-2---2-2-------7-7-7-7-7-6-6-6-6-6-6-6---
D|-------------------------------7-7-7-7-7-7-7-7-7-7-7-7---
A|----0^2-2------------------------------------------------
E|---------------------------------------------------------

e|---------------------------------------------------------
b|-----------0-0-----0-----0-------------------------------
G|---------------2-2---2-2-------7-7-7-7-7-9-9-9-9-9-9-9---
D|-------------------------------7-7-7-7-7-x-x-x-x-x-x-x---
A|----0^2-2--------------------------------x-x-x-x-x-x-x---
E|-----------------------------------------0-0-0-0-0-0-0---

VERSE
e|---------------------------------------------------------
b|-----------0-0-----0-----0-----0-0-0-0-0-0-0-0-0-0-0-0---
G|---------------2-2---2-2-------7-7-7-7-7-6-6-6-6-6-6-6---
D|-------------------------------7-7-7-7-7-7-7-7-7-7-7-7---
A|----0^2-2------------------------------------------------
E|---------------------------------------------------------

e|---------------------------------------------------------
b|-----------0-0-----0-----0-----0-0-0-0-0-0---------------
G|---------------2-2---2-2-------7-7-7-7-7-6---------------
D|-------------------------------7-7-7-7-7-7---------------
A|----0^2-2------------------------------------------------
E|---------------------------------------------------------

e|---------------------------------------------------------
b|-----------0-0-----0-----0-----0-0-0-0-0-0-0-0-0-0-0-0---
G|---------------2-2---2-2-------7-7-7-7-7-6-6-6-6-6-6-6---
D|-------------------------------7-7-7-7-7-7-7-7-7-7-7-7---
A|----0^2-2------------------------------------------------
E|---------------------------------------------------------

e|---------------------------------------------------------
b|-----------0-0-----0-----0-------------------------------
G|---------------2-2---2-2-------7-7-7-7-7-9-9-9-9-9-9-9---
D|-------------------------------7-7-7-7-7-x-x-x-x-x-x-x---
A|----0^2-2--------------------------------x-x-x-x-x-x-x---
E|-----------------------------------------0-0-0-0-0-0-0---

PRE-CHORUS
E||------------------------------||-------------------------------
B||*----------------------------*||-------------------------------
G||--9-9-9-9-9-9-7-7-7-5-5-5-5---||-2-2-2-2-2-2---------5-5-5-5---
D||--9-9-9-9-9-9-7-7-7-5-5-5-5---||-2-2-2-2-2-2-5-5-5-X-5-5-5-5---
A||*-7-7-7-7-7-7-5-5-5-3-3-3-3--*||-0-0-0-0-0-0-2-2-2-X-3-3-3-3---
E||--0-0-0-0-0-0-5-5-5-3-3-3-3---||-------------------------------

CHORUS
e|------------------------------------------------------
b|------------------------------------------------------
G|-4-4-4-4-4-4-------------7-7-7-7-7-7-7-9-9-9-9-9-9-9--
D|-4-4-4-4-4-4-5-5-5-5-5-5-7-7-7-7-7-7-7-9-9-9-9-9-9-9--
A|-2-2-2-2-2-2-5-5-5-5-5-5-5-5-5-5-5-5-5-7-7-7-7-7-7-7--
E|-2-2-2-2-2-2-3-3-3-3-3-3-5-5-5-5-5-5-5-0-0-0-0-0-0-0--

e|------------------------------------------------------
b|------------------------------------------------------
G|-4-4-4-4-4-4-------------7-7-7-7-7-7-7-9-9-9-9-9-9-9--
D|-4-4-4-4-4-4-5-5-5-5-5-5-7-7-7-7-7-7-7-9-9-9-9-9-9-9--
A|-2-2-2-2-2-2-5-5-5-5-5-5-5-5-5-5-5-5-5-7-7-7-7-7-7-7--
E|-2-2-2-2-2-2-3-3-3-3-3-3-5-5-5-5-5-5-5-0-0-0-0-0-0-0--

e|---------------------------------------------------
b|---------------------------------------------------
G|-9-9-9-9-9-9-5-5-5-5-5-5--7-7-7-7-7-7-7-7-7-7-7-7--
D|-9-9-9-9-9-9-5-5-5-5-5-5--7-7-7-7-7-7-7-7-7-7-7-7--
A|-7-7-7-7-7-7-3-3-3-3-3-3--5-5-5-5-5-5-5-5-5-5-5-5--
E|-7-7-7-7-7-7-3-3-3-3-3-3--5-5-5-5-5-5-5-5-5-5-5-5--

e|--------------------------------------------------------
b|--------------------------------------------------------
G|-4-4-4-4-4-4-------------7-7-7-7-7-7-7-PM---------------
D|-4-4-4-4-4-4-5-5-5-5-5-5-7-7-7-7-7-7-7-===============--
A|-2-2-2-2-2-2-5-5-5-5-5-5-5-5-5-5-5-5-5-7-7-7-7-7-7-7-7--
E|-2-2-2-2-2-2-3-3-3-3-3-3-5-5-5-5-5-5-5-0-0-0-0-0-0-0-0--

REST FOR BRIDGE -- BASS, DRUMS, AND VOCALS ONLY

SOLO
e|--10-10-7-7-------------10-10-7-7-------------------------------------------------------
b|-------------10-10-7--------------10-10-10-10-10-10-10-10-10-10-10-10-10-10-10-10-10-10-
G|----------------------------------------------------------------------------------------
D|----------------------------------------------------------------------------------------
A|----------------------------------------------------------------------------------------
E|----------------------------------------------------------------------------------------

e|-10-10-7-7-----------10-10-7-7------------------------------------
b|-----------10-10-10------------10-10-10-7-7-7-7-7-8-7-7-----------
G|------------------------------------------------------------------
D|------------------------------------------------------------------
A|------------------------------------------------------------------
E|------------------------------------------------------------------

e|--T------------------T----------------T-----------------/17-15^14-----------------------
b|--17^12^10-12^10-----17^12^10-12^10---17^12^10-12^10--------------15--------------------
G|-----------------9------------------9----------------9---------------14-----------------
D|------------------------------------------------------------------------16-17-16-14-16--
A|----------------------------------------------------------------------------------------
E|----------------------------------------------------------------------------------------

e|-----------------------------------------------------------------
b|-------------------------------------15---15---15----------------
G|------------------------------------------17^b-17^b--------------
D|------12--------12^14-12^14/16\14\12-----------------------------
A|---14--------14--------------------------------------X\\PICK-----
E|---------14------------------------------------------X-\\\SCRAPE-

CHORUS
e|------------------------------------------------------
b|------------------------------------------------------
G|-4-4-4-4-4-4-------------7-7-7-7-7-7-7-9-9-9-9-9-9-9--
D|-4-4-4-4-4-4-5-5-5-5-5-5-7-7-7-7-7-7-7-9-9-9-9-9-9-9--
A|-2-2-2-2-2-2-5-5-5-5-5-5-5-5-5-5-5-5-5-7-7-7-7-7-7-7--
E|-2-2-2-2-2-2-3-3-3-3-3-3-5-5-5-5-5-5-5-0-0-0-0-0-0-0--

e|------------------------------------------------------
b|------------------------------------------------------
G|-4-4-4-4-4-4-------------7-7-7-7-7-7-7-9-9-9-9-9-9-9--
D|-4-4-4-4-4-4-5-5-5-5-5-5-7-7-7-7-7-7-7-9-9-9-9-9-9-9--
A|-2-2-2-2-2-2-5-5-5-5-5-5-5-5-5-5-5-5-5-7-7-7-7-7-7-7--
E|-2-2-2-2-2-2-3-3-3-3-3-3-5-5-5-5-5-5-5-0-0-0-0-0-0-0--

e|---------------------------------------------------
b|---------------------------------------------------
G|-9-9-9-9-9-9-5-5-5-5-5-5--7-7-7-7-7-7-7-7-7-7-7-7--
D|-9-9-9-9-9-9-5-5-5-5-5-5--7-7-7-7-7-7-7-7-7-7-7-7--
A|-7-7-7-7-7-7-3-3-3-3-3-3--5-5-5-5-5-5-5-5-5-5-5-5--
E|-7-7-7-7-7-7-3-3-3-3-3-3--5-5-5-5-5-5-5-5-5-5-5-5--

e|--------------------------------------------------------
b|--------------------------------------------------------
G|-4-4-4-4-4-4-------------7-7-7-7-7-7-7-PM---------------
D|-4-4-4-4-4-4-5-5-5-5-5-5-7-7-7-7-7-7-7-===============--
A|-2-2-2-2-2-2-5-5-5-5-5-5-5-5-5-5-5-5-5-7-7-7-7-7-7-7-7--
E|-2-2-2-2-2-2-3-3-3-3-3-3-5-5-5-5-5-5-5-0-0-0-0-0-0-0-0--

e|------------------------------------------------------
b|------------------------------------------------------
G|-4-4-4-4-4-4-------------7-7-7-7-7-7-7-9-9-9-9-9-9-9--
D|-4-4-4-4-4-4-5-5-5-5-5-5-7-7-7-7-7-7-7-9-9-9-9-9-9-9--
A|-2-2-2-2-2-2-5-5-5-5-5-5-5-5-5-5-5-5-5-7-7-7-7-7-7-7--
E|-2-2-2-2-2-2-3-3-3-3-3-3-5-5-5-5-5-5-5-0-0-0-0-0-0-0--

e|------------------------------------------------------
b|------------------------------------------------------
G|-4-4-4-4-4-4-------------7-7-7-7-7-7-7-9-9-9-9-9-9-9--
D|-4-4-4-4-4-4-5-5-5-5-5-5-7-7-7-7-7-7-7-9-9-9-9-9-9-9--
A|-2-2-2-2-2-2-5-5-5-5-5-5-5-5-5-5-5-5-5-7-7-7-7-7-7-7--
E|-2-2-2-2-2-2-3-3-3-3-3-3-5-5-5-5-5-5-5-0-0-0-0-0-0-0--

e|------------------------------------------------------
b|------------------------------------------------------
G|-4-4-4-4-4-4-------------7-7-7-7-7-7-7-9-9-9-9-9-9-9--
D|-4-4-4-4-4-4-5-5-5-5-5-5-7-7-7-7-7-7-7-9-9-9-9-9-9-9--
A|-2-2-2-2-2-2-5-5-5-5-5-5-5-5-5-5-5-5-5-7-7-7-7-7-7-7--
E|-2-2-2-2-2-2-3-3-3-3-3-3-5-5-5-5-5-5-5-0-0-0-0-0-0-0--

e|--------------------------------------------------------
b|--------------------------------------------------------
G|-4-4-4-4-4-4-------------7-7-7-7-7-7-7-PM---------------
D|-4-4-4-4-4-4-5-5-5-5-5-5-7-7-7-7-7-7-7-===============--
A|-2-2-2-2-2-2-5-5-5-5-5-5-5-5-5-5-5-5-5-7-7-7-7-7-7-7-7--
E|-2-2-2-2-2-2-3-3-3-3-3-3-5-5-5-5-5-5-5-0-0-0-0-0-0-0-0--

e|------------------------------------------------------------------
b|---------0------0-------------------------------------------------
G|-----------2----2-------------------------------------------------
D|------------------------------------------------------------------
A|--0^2-2-------2---------------------------------------------------
E|------------------------------------------------------------------

|* = repeat sign
*| = repeat sign
^ = hammer-on/pull-off
/ = slide up
\ = slide down
() = harmonics
x = string mute
^b = bend
qr = Quick Rest
T = tapping
~~ = trill
X\\ = pick slide

pm
== = Palm Mute
Комментарии
0.0341 s, 0.76MB