Тональность0+
Шрифт0
Комментарии: 0
Автопрокрутка

Accept - Lifes A Bitch

Оцените подбор:
0
оценок: 0
4
Добавить в избранное

Аккорды в подборе
Скрыть
E Варианты B Варианты A Варианты D Варианты F# Варианты C#m Варианты
SONG:   LIFE'S A BITCH
ARTIST: ACCEPT
TAB BY: DON CZARSKI
EMAIL:  GUITARZAN7@HOTMAIL.COM


NOTE: You can play this if you want using power chords.
      I just used standard barre chords. Listen for the
      beat of the song so as to help you get the strumming
      correct.

                        LIFE'S A BITCH
                            ACCEPT

INTRO:

    E      E       E  B    A E
E --------------|--------------|
B --------------|--------------|
G -1h2-4--2\1---|-1h2-4-4--2---|
D ------------2-|------------2-|
A --------------|--------------|
E --------------|--------------|

    E      E       E  B    A E
E --------------|--------------|
B --------------|--------------|
G -1h2-4--2\1---|-1h2-4-4--2---|
D ------------2-|------------2-|
A --------------|--------------|
E --------------|--------------|


HEY !!!


GUITAR 1:
    A      A       A  E    D A

GUITAR 2:
E --------------|--------------|
B --------------|--------------|
G -6h7-9--7\6---|-6h7-9-9--7---|
D ------------7-|------------7-|
A --------------|--------------|
E --------------|--------------|


VERSE:
 E                        E
Working the streets till way after dark
          E        B                 A      E
Drives a beat up Chevy back to the trailer park

 E                  E
Runs the shower to wash off the men
 E         B          A        E
Tomorrow night she'll do it again


PRE-CHORUS:
F#
But later on at the bar and grill
 D
She's drinking with her friends till she gets a thrill
        E
'Cause nothing's gonna break her will


CHORUS:
 E                 E
Life's a bitch, I don't know why
  E          B         A   E
There's no shelter, no alibi

 E                  E
Life's a bitch, no easy way
    E     B          A   E
No lucky number, no holiday


GUITAR 1:
    A      A       A  E    D A

GUITAR 2:
E --------------|--------------|
B --------------|--------------|
G -6h7-9--7\6---|-6h7-9-9--7---|
D ------------7-|------------7-|
A --------------|--------------|
E --------------|--------------|


VERSE:
 E              E
Single dad, he works two jobs
 E             B              A          E
He's cooking meals while he cleans the house

      E                      E
He's got no love life, the rents overdue
     E          B       A           E
The kids need braces, glasses and shoes


PRE-CHORUS:
F#
And even though his life is hell
          D
When he looks at the pictures up on the shelves
          E
He just smiles to himself


CHORUS:
 E                 E
Life's a bitch, I don't know why
  E          B         A   E
There's no shelter, no alibi

 E                  E
Life's a bitch, no easy way
    E     B          A   E
No lucky number, no holiday


BREAK:
 E   C#m   A  E
Hell yeah
 E               B
It's gonna be alright

 E   C#m  A
Hell yeah
 A         E                       B
Just keep walking on through the night
 E        C#m
Life's a bitch

E  E  E B A E
E  E  E B A E

 E   C#m   A
Hell yeah
 E               B
It's gonna be alright

 E   C#m   A
Hell yeah
 A       E                   B
Keep on walking through the night

GUITAR 1:
    E      E       E  B    A E

GUITAR 2:
E --------------|--------------|
B --------------|--------------|
G -1h2-4--2\1---|-1h2-4-4--2---|
D ------------2-|------------2-|
A --------------|--------------|
E --------------|--------------|

GUITAR 1:
    E      E       E  B    A E

GUITAR 2:
E --------------|--------------|
B --------------|--------------|
G -1h2-4--2\1---|-1h2-4-4--2---|
D ------------2-|------------2-|
A --------------|--------------|
E --------------|--------------|


CHORUS/OUTRO:
 E                 E
Life's a bitch, I don't know why
  E          B         A   E
There's no shelter, no alibi

 E              E
Life's a bitch, so they say
E       B             A       E
No champagne and no crème brûlée

 E             E   E B  A E
Life's a bitch

 E                  E
Life's a bitch and then you die
 E         B         A       E
Then it's over just say goodbye

E  E  E B  A E
Комментарии
0.0345 s, 0.8MB